Nickelback - Figured You Out Chords & Tabs

 

Figured You Out Chords & Tabs

Nickelback Chords & Tabs

Version: 3 Type: Tab 0 ratings
1 star 2 stars 3 stars 4 stars 5 stars
comments

Figured You Out Tab

   
Artist: Nickelback
Song: Figured you out
Album: The Long Road
Tabber: 4StaR

From what i can work out this song is played in C Major
if you know otherwise contact me and i will try and work it out in that key.

Btw, this song has two guitars but ive re written it for the one guitar
may rewrite for two guitars if there is large request for it.

Implodingvoice69@hotmail.com

DROPPED D

Legend
X: Palm Mute
/:slide


intro/verse
i like your pants...
           C5x4    Em5      F5X4   C5x2
e|-------|----------------------------------
B|-------|----------------------------------
G|-------|--55XX--------------------55XX--5--
D|-10\0--|--55XX---11xx------33XX---55XX--5--
A|-10\0--|--33XX---11xx------33XX---33XX--3--
D|-10\0--|---------11xx------33XX-----------


Pre Chorus
I love the places...
                 C5x2             Em5X2   F5X2  C5X1
e|---------|----------------------------------------
B|---------|----------------------------------------
G|-5/10\5--|------55 5555 5 5555-----------------5--
D|-5/10\5--|------55 5555 5 5555---11------33----5--
A|-3/8-\3--|------33 3333 3 3333---11------33----3--
D|---------|-----------------------11------33-------
Harmonics           ....   ....

NOTE: same as intro verse but with harmonics 
of the chords as stated.. these harmonics also
occur for Em5 and F5 just not shown to save
time and space (rythym similar listen to song)


Chorus
Now i know who you are...
    C5x6   A#5x6   F5x6 Emx1  C5   
e|----------------------------------------
B|----------------------------------------
G|---5 5-------3-------------5 5555 5 5555
D|---5 5-------3------3--1---5 5555 5 5555
A|---3 3-------1------3--1---3 3333 3 3333
D|--------------------3--1----------------
PM   .                 Harm  ....   ....
Note:strum for chorus is approximation 
and depends on how you play it.

second chorus and final chorus: 
This does the harmonic area an 
extra 6 times on the second bar around


Interlude:

Still a working progress if anyone has 
any idea mail me so i can work it out.
However i just play a progression like
the verse with the chords chad would play
with a few extra mutes to keep up with tempo.
this is:

    C5x4     A#5x4   F5x4 C5x2   
e|--------------------------------------
B|--------------------------------------
G|---55XXXX---3XXXX-----------55XXXX-5--
D|---55XXXX---3XXXX---3XXXX---55XXXX-5--
A|---33XXXX---1XXXX---3XXXX---33XXXX-3--
D|--------------------3XXXX-------------

[ Tab from: http://www.guitartabs.cc/tabs/n/nickelback/figured_you_out_tab_ver_3.html ]
Verse #2 (after Interlude)
I like your pants....
    C5x3   Em5X3    F5X3
e|-----------------------------
B|-----------------------------
G|-55XX------------------------
D|-55Xx---11xx------33XX-------
A|-33Xx---11xx------33XX-------
E|--------11xx------33XX-------
PM ....   ....      ....
Note: this is the same as all the other
verses just everythig is palm muted.


End On
(MAKESHIFT LIKE INTERLUDE)
    C5x3       
e|-----------------------
B|-----------------------
G|---55XXXX--55XX55XX----
D|---55XXXX--55XX55XX33\0
A|---33XXXX--33XX33XX33\0
D|-------------------33\0

Song Flow
Intro
prechorus
Chorus X2
Verse
Pre Chorus
Chorus X2
Interlude
Verse#2
Prechorus
ChorusX2
Ending



Lyrics:
I like your pants around your feet
And I like the dirt that's on your knees
And I like the way you still say please
While your looking up at me
You're like my favourite damn disease

And I love the places that we go
And I love the people that you know
And I love the way you can't say no
Too many long lines in a row
I love the powder on your nose

And now I know who you are
It wasn't that hard, just to figure you out
(Now I did, you wonder why)
And now I know who you are
It wasn't that hard, just to figure you out
(Now I did, you wonder why)

I like the freckles on your chest
And I like the way you like me best
And I like the way you're not impressed
While you put me to the test
I like the white stains on your dress

And I love the way you pass the cheque
And I love the good times that you wreck
And I love your lack of self-respect
While you passed out on the deck
I love my hands around your neck

And now I know who you are
It wasn't that hard, just to figure you out
(Now I did, you wonder why)
And now I know who you are
It wasn't that hard, just to figure you out
(Now I did, you wonder why)
(Why not before, you never tried)
(Gone for good, and this is it)

I like your pants around your feet
And I like the dirt that's on your knees
And I like the way you still say please
While your looking up at me
You're like my favourite damn disease

And I hate the places that we go
And I hate the people that you know
And I hate the way you can't say no
Too many long lines in a row
I hate the powder on your nose

And now I know who you are
It wasn't that hard, just to figure you out
(Now I did, you wonder why)
And now I know who you are
It wasn't that hard, just to figure you out
(Now I did, you wonder why)
(Why not before, you never tried)
(Gone for good, and this is it)
Comments