Nickelback - Feelin Way Too Damn Good Chords & Tabs

 

Feelin Way Too Damn Good Chords & Tabs

Nickelback Chords & Tabs

Version: 4 Type: Tab 0 ratings
1 star 2 stars 3 stars 4 stars 5 stars
comments

Feelin Way Too Damn Good Tab

Artist: Nickelback
Song: Feel'in Way Too Damn Good
Album: The Long Road
Tabber: Clayton Crowder

Standard Tuning: (eBGDAE)

INTRO/VERSE:
e -2--2----|------------|-------------|---------|      ( INTRO: Play twice
B -3--3----|--3---3-----|----3--3-----|---3--3--|        and then go into
G -2--2----|--2---2-----|-------------|---------|        the first verse)
D ---------|------------|-------------|---------|
A ---------|--3---3-----|----2--2-----|---1--1--|
E ---------|------------|-------------|---------|

[ Tab from: http://www.guitartabs.cc/tabs/n/nickelback/feelin_way_too_damn_good_tab_ver_4.html ]
Bridge 1:
e --1---1---|---3---3---|---2---2---|
B --1---1---|---3---3---|---3---3---|     ( Repeat again and go into the
G --2---2---|---4---4---|---2---2---|       next verse on e --2-------
D --3---3---|---5---5---|-----------|                     B --3-------
A --3---3---|---5---5---|-----------|                     G --2------- )
E --1---1---|---3---3---|-----------|



VERSE 2:

BRIDGE 2:

CHORUS:

e --------|--1--1--|--------|--3--3---|--1--1--|--3--3--|--2--2----|
B --------|--1--1--|--1--1--|--3--3---|--1--1--|--3--3--|--3--3----|
G -3--3---|--2--2--|--------|--4--4---|--2--2--|--4--4--|--2--2----|
D -3--3---|--3--3--|--2--2--|--5--5---|--3--3--|--5--5--|----------|
A -1--1---|--3--3--|--3--3--|--5--5---|--3--3--|--5--5--|----------|
E --------|--1--1--|--------|--3--3---|--1--1--|--3--3--|----------|

( Repeat and go back into verses)



*********Thats basicly the whole song right there, just fill in the blanks and you got
it! ***********************
                                       Peace Out!
                                                     -Clayton Crowder
 P.S.  REMEMBER MY NAME
Comments