Nickelback - Feelin Way Too Damn Good Chords & Tabs

 

Feelin Way Too Damn Good Chords & Tabs

Nickelback Chords & Tabs

Version: 3 Type: Tab 0 ratings
1 star 2 stars 3 stars 4 stars 5 stars
comments

Feelin Way Too Damn Good Tab

   
FEELIN' WAY TO DAMN GOOD
As recorded by Nickelback


Transcribed by PickAction@insightbb.com




Gtr I (D A D G B E) - 'Electric Guitar (clean)'
Gtr II (D A D G B E) - 'Electric Guitar (clean)'


 Intro
  Q=80
 4/4
  Gtr I
  Q  Q   Q   Q     Q   Q   S  S  E  Q
|---------------|----------------------|
|---------------|----------------------|
|---------------|----------------------|
|-0--0---0---0--|--0---0---0--0--0--0--|
|-9--9---9---9--|-10--10--10-10-10-10--|
|-0--0--10--10--|--9---9---8--8--8--8--|
|
| Gtr II
|                  ~~~~~~~~~~~~~~~~~~~
| H      H         H       Q        Q
|---------------|----------8-------10--|
|---------------|--8-------------------|
|---------------|----------------------|
|---------------|----------------------|
|---------------|----------------------|
|---------------|----------------------|


 4/4
  Gtr I
  Q  Q   Q         Q           Q         Q         S  S  E    Q
|---------------------------|------------------------------------------|
|---------------------------|------------------------------------------|
|---------------------------|------------------------------------------|
|-0--0---0---------0--------|--0---------0---------0--0--0----0--------|
|-9--9---9---------9--------|-10--------10--------10-10-10---10--------|
|-0--0--10--------10--------|--9---------9---------8--8--8----8--------|
|
| Gtr II
|        <
| H      S S S  S  S S  S S    S  S S S  S S S  S  S  S  S S  S  S S S
|-------10-8---10--8---10-8-|----10-8---10-8---10--8----10-8----10-8---|
|------------8-------8------|--8------8------8--------8-------8------8-|
|---------------------------|------------------------------------------|
|---------------------------|------------------------------------------|
|---------------------------|------------------------------------------|
|---------------------------|------------------------------------------|


   4/4
    Q  Q   Q   Q     Q   Q   S  S  E  Q
||----------------|-----------------------||
||o---------------|----------------------o||
||----------------|-----------------------||
||--0--0---0---0--|--0---0---0--0--0--0---||
||o-9--9---9---9--|-10--10--10-10-10-10--o||
||--0--0--10--10--|--9---9---8--8--8--8---||


  Q  Q   H      H    H      H    H      W
|-------------|-----------|-----------|------|
|-------------|-----------|-----------|------|
|-8--8--10----|-5----5----|-3----5----|------|
|-8--8--10----|-5----5----|-3----5----|-0----|
|-8--8--10----|-5----5----|-3----5----|-9----|
|-8--8--10----|-5----5----|-3----5----|-0----|


 4/4
  Gtr I
  Q  Q   Q   Q     Q   Q   S  S  E  Q
|---------------|----------------------|
|---------------|----------------------|
|---------------|----------------------|
|-0--0---0---0--|--0---0---0--0--0--0--|
|-9--9---9---9--|-10--10--10-10-10-10--|
|-0--0--10--10--|--9---9---8--8--8--8--|
|
| Gtr II
|                  ~~~~~~~~~~~~~~~~~~~
| H      H         H       Q        Q
|---------------|----------8-------10--|
|---------------|----------------------|
|---------------|--7-------------------|
|---------------|----------------------|
|---------------|----------------------|
|---------------|----------------------|


 4/4
  Gtr I
  Q  Q   Q   Q     Q   Q   S  S  E  Q
|---------------|----------------------|
|---------------|----------------------|
|---------------|----------------------|
|-0--0---0---0--|--0---0---0--0--0--0--|
|-9--9---9---9--|-10--10--10-10-10-10--|
|-0--0--10--10--|--9---9---8--8--8--8--|
|
| Gtr II
|                  ~~~~~~~~~~
| H      H         H       Q        Q
|---------------|-10-------------------|
|---------------|----------8-----------|
|---------------|-------------------7--|
|---------------|----------------------|
|---------------|----------------------|
|---------------|----------------------|


   Q  Q   H      H    H      H    H      E E E E E E E E
|--------------|-----------|-----------|-----------------|
|--------------|-----------|-----------|-----------------|
|--8--8--10----|-5----5----|-3----5----|-----------------|
|--8--8--10----|-5----5----|-3----5----|-0-0-0-0-0-0-0-0-|
|--8--8--10----|-5----5----|-3----5----|-0-0-0-0-0-0-0-0-|
|--8--8--10----|-5----5----|-3----5----|-0-0-0-0-0-0-0-0-|
|
|  ~~
|  W             W           W           W
|-10-----------|-----------|-----------|-----------------|
|--------------|-----------|-----------|-----------------|
|--------------|-----------|-----------|-----------------|
|--------------|-----------|-----------|-----------------|
|--------------|-----------|-----------|-----------------|
|--------------|-----------|-----------|-----------------|


  E E E E E E E E   E E E Q  S S E E   E E E E E E E E    Q   E Q  E S S E
|-----------------|------------------|-----------------|-10---8-5--3-------|
|-----------------|------------------|-----------------|-10---8-5--3-------|
|-3-3-3-3-3-3-3-3-|-5-5-5-5--5-5-5-5-|-3-3-3-3-5-5-5-5-|-12--10-7--5-------|
|-3-3-3-3-3-3-3-3-|-5-5-5-5--5-5-5-5-|-3-3-3-3-5-5-5-5-|-12--10-7--5-------|
|-1-1-1-1-3-3-3-3-|-3-3-3-3--5-5-5-5-|-3-3-3-3-5-5-5-5-|-10---8-5--3-------|
|-0-0-0-0-3-3-3-3-|-0-0-0-0--5-5-5-5-|-3-3-3-3-5-5-5-5-|-------------5-3-0-|


  E E E E E E E E   E E E E S S S S S S S S   E E E E E E E E
|-----------------|-------------------------|-----------------|
|-----------------|-------------------------|-----------------|
|-3-3-3-3-3-3-3-3-|-5-5-5-5-x-x-x-x-x-x-x-x-|-3-3-3-3-5-5-5-5-|
|-3-3-3-3-3-3-3-3-|-5-5-5-5-x-x-x-x-x-x-x-x-|-3-3-3-3-5-5-5-5-|
|-1-1-1-1-3-3-3-3-|-3-3-3-3-x-x-x-x-x-x-x-x-|-3-3-3-3-5-5-5-5-|
|-0-0-0-0-3-3-3-3-|-0-0-0-0-x-x-x-x-x-x-x-x-|-3-3-3-3-5-5-5-5-|


   4/4
    Gtr I
    E E E E  E  E  E  E    E  E  E  E  E  E  E  E
||----------------------|--------------------------||
||o---------------------|-------------------------o||
||----------------------|--------------------------||
||--0-0-0-0--0--0--0--0-|--0--0--0--0--0--0--0--0--||
||o-9-9-9-9--9--9--9--9-|-10-10-10-10-10-10-10-10-o||
||--0-0-0-0-10-10-10-10-|--9--9--9--9--8--8--8--8--||


   4/4
    Q  Q   Q   Q     Q   Q   S  S  E  Q
||----------------|-----------------------||
||o---------------|----------------------o||
||----------------|-----------------------||
||--0--0---0---0--|--0---0---0--0--0--0---||
||o-9--9---9---9--|-10--10--10-10-10-10--o||
||--0--0--10--10--|--9---9---8--8--8--8---||


  Q  Q   H      H    H      H    H      E E E E E E E E
|-------------|-----------|-----------|-----------------|
|-------------|-----------|-----------|-----------------|
|-8--8--10----|-5----5----|-3----5----|-----------------|
|-8--8--10----|-5----5----|-3----5----|-0-0-0-0-0-0-0-0-|
|-8--8--10----|-5----5----|-3----5----|-0-0-0-0-0-0-0-0-|
|-8--8--10----|-5----5----|-3----5----|-0-0-0-0-0-0-0-0-|

[ Tab from: http://www.guitartabs.cc/tabs/n/nickelback/feelin_way_too_damn_good_tab_ver_3.html ]
  E E E E E E E E   E E E Q  S S E E   E E E E E E E E    Q   E Q  E S S E
|-----------------|------------------|-----------------|-10---8-5--3-------|
|-----------------|------------------|-----------------|-10---8-5--3-------|
|-3-3-3-3-3-3-3-3-|-5-5-5-5--5-5-5-5-|-3-3-3-3-5-5-5-5-|-12--10-7--5-------|
|-3-3-3-3-3-3-3-3-|-5-5-5-5--5-5-5-5-|-3-3-3-3-5-5-5-5-|-12--10-7--5-------|
|-1-1-1-1-3-3-3-3-|-3-3-3-3--5-5-5-5-|-3-3-3-3-5-5-5-5-|-10---8-5--3-------|
|-0-0-0-0-3-3-3-3-|-0-0-0-0--5-5-5-5-|-3-3-3-3-5-5-5-5-|-------------5-3-0-|


  E E E E E E E E   E E E E S S S S S S S S   E E E E E E E E
|-----------------|-------------------------|-----------------|
|-----------------|-------------------------|-----------------|
|-3-3-3-3-3-3-3-3-|-5-5-5-5-x-x-x-x-x-x-x-x-|-3-3-3-3-5-5-5-5-|
|-3-3-3-3-3-3-3-3-|-5-5-5-5-x-x-x-x-x-x-x-x-|-3-3-3-3-5-5-5-5-|
|-1-1-1-1-3-3-3-3-|-3-3-3-3-x-x-x-x-x-x-x-x-|-3-3-3-3-5-5-5-5-|
|-0-0-0-0-3-3-3-3-|-0-0-0-0-x-x-x-x-x-x-x-x-|-3-3-3-3-5-5-5-5-|


   4/4
    Gtr I
    E E E E  E  E  E  E    E  E  E  E  E  E  E  E  3x
||----------------------|--------------------------||
||o---------------------|-------------------------o||
||----------------------|--------------------------||
||--0-0-0-0--0--0--0--0-|--0--0--0--0--0--0--0--0--||
||o-9-9-9-9--9--9--9--9-|-10-10-10-10-10-10-10-10-o||
||--0-0-0-0-10-10-10-10-|--9--9--9--9--8--8--8--8--||


 4/4
  Gtr I
  E E E E  E  E  E  E    Q   Q   H     W
|---------------------|-------------|-------|
|---------------------|-------------|-------|
|---------------------|-------------|-------|
|-0-0-0-0--0--0--0--0-|--0---0---0--|-------|
|-9-9-9-9--9--9--9--9-|-10--10--10--|-------|
|-0-0-0-0-10-10-10-10-|--9---9---8--|-------|


 4/4
  Gtr I
  Q  Q   Q   Q     Q   Q   S  S  E  Q
|---------------|----------------------|
|---------------|----------------------|
|---------------|----------------------|
|-0--0---0---0--|--0---0---0--0--0--0--|
|-9--9---9---9--|-10--10--10-10-10-10--|
|-0--0--10--10--|--9---9---8--8--8--8--|


 4/4
  Gtr I
  Q  Q   Q     Q     Q     Q     S  S  E   Q
|-----------------|----------------------------|
|-----------------|----------------------------|
|-----------------|----------------------------|
|-0--0---0-----0--|--0-----0-----0--0--0---0---|
|-9--9---9-----9--|-10----10----10-10-10--10---|
|-0--0--10----10--|--9-----9-----8--8--8---8---|


 4/4
  Gtr I
  Q  Q   Q         Q           Q         Q         S  S  E    Q
|---------------------------|------------------------------------------|
|---------------------------|------------------------------------------|
|---------------------------|------------------------------------------|
|-0--0---0---------0--------|--0---------0---------0--0--0----0--------|
|-9--9---9---------9--------|-10--------10--------10-10-10---10--------|
|-0--0--10--------10--------|--9---------9---------8--8--8----8--------|
|
| Gtr II
|        <
| H      S S S  S  S S  S S    S  S S S  S S S  S  S  S  S S  S  S S S
|-------10-8---10--8---10-8-|----10-8---10-8---10--8----10-8----10-8---|
|------------8-------8------|--8------8------8--------8-------8------8-|
|---------------------------|------------------------------------------|
|---------------------------|------------------------------------------|
|---------------------------|------------------------------------------|
|---------------------------|------------------------------------------|


   4/4
    Q  Q   Q   Q     Q   Q   S  S  E  Q
||----------------|-----------------------||
||o---------------|----------------------o||
||----------------|-----------------------||
||--0--0---0---0--|--0---0---0--0--0--0---||
||o-9--9---9---9--|-10--10--10-10-10-10--o||
||--0--0--10--10--|--9---9---8--8--8--8---||


  Q  Q   H      H    H      H    H      E E E E E E E E
|-------------|-----------|-----------|-----------------|
|-------------|-----------|-----------|-----------------|
|-8--8--10----|-5----5----|-3----5----|-----------------|
|-8--8--10----|-5----5----|-3----5----|-0-0-0-0-0-0-0-0-|
|-8--8--10----|-5----5----|-3----5----|-0-0-0-0-0-0-0-0-|
|-8--8--10----|-5----5----|-3----5----|-0-0-0-0-0-0-0-0-|


  E E E E E E E E   E E E Q  S S E E   E E E E E E E E    Q   E Q  E S S E
|-----------------|------------------|-----------------|-10---8-5--3-------|
|-----------------|------------------|-----------------|-10---8-5--3-------|
|-3-3-3-3-3-3-3-3-|-5-5-5-5--5-5-5-5-|-3-3-3-3-5-5-5-5-|-12--10-7--5-------|
|-3-3-3-3-3-3-3-3-|-5-5-5-5--5-5-5-5-|-3-3-3-3-5-5-5-5-|-12--10-7--5-------|
|-1-1-1-1-3-3-3-3-|-3-3-3-3--5-5-5-5-|-3-3-3-3-5-5-5-5-|-10---8-5--3-------|
|-0-0-0-0-3-3-3-3-|-0-0-0-0--5-5-5-5-|-3-3-3-3-5-5-5-5-|-------------5-3-0-|


  E E E E E E E E   E E E E S S S S S S S S   E E E E E E E E
|-----------------|-------------------------|-----------------|
|-----------------|-------------------------|-----------------|
|-3-3-3-3-3-3-3-3-|-5-5-5-5-x-x-x-x-x-x-x-x-|-3-3-3-3-5-5-5-5-|
|-3-3-3-3-3-3-3-3-|-5-5-5-5-x-x-x-x-x-x-x-x-|-3-3-3-3-5-5-5-5-|
|-1-1-1-1-3-3-3-3-|-3-3-3-3-x-x-x-x-x-x-x-x-|-3-3-3-3-5-5-5-5-|
|-0-0-0-0-3-3-3-3-|-0-0-0-0-x-x-x-x-x-x-x-x-|-3-3-3-3-5-5-5-5-|


   4/4
    Gtr I
    E E E E  E  E  E  E    E  E  E  E  E  E  E  E  3x
||----------------------|--------------------------||
||o---------------------|-------------------------o||
||----------------------|--------------------------||
||--0-0-0-0--0--0--0--0-|--0--0--0--0--0--0--0--0--||
||o-9-9-9-9--9--9--9--9-|-10-10-10-10-10-10-10-10-o||
||--0-0-0-0-10-10-10-10-|--9--9--9--9--8--8--8--8--||


 4/4
  Gtr I
  E E E E  E  E  E  E    H     H
|---------------------|-------------*|
|---------------------|-------------*|
|---------------------|-------------*|
|-0-0-0-0--0--0--0--0-|--0-----0----*|
|-9-9-9-9--9--9--9--9-|-10----10----*|
|-0-0-0-0-10-10-10-10-|--9-----8----*|




Duration Legend
---------------
W - whole; H - half; Q - quarter; E - 8th; S - 16th; T - 32nd; X - 64th; a - acciaccatura
+ - note tied to previous; . - note dotted; .. - note double dotted
Uncapitalized letters represent notes that are staccato (1/2 duration)
Irregular groupings are notated above the duration line
Duration letters will always appear directly above the note/fret number it represents the
duration for.  Duration letters with no fret number below them represent rests.  Multi-
bar rests are notated in the form Wxn, where n is the number of bars to rest for.  Low
melody durations appear below the staff

Tablature Legend
----------------
 h   - hammer-on
 p   - pull-off
 b   - bend
 pb  - pre-bend
 r   - bend release (if no number after the r, then release immediately)
 /\  - slide into or out of (from/to "nowhere")
 s   - legato slide
 S   - shift slide
 - natural harmonic
[n]  - artificial harmonic
n(n) - tapped harmonic
 ~   - vibrato
 tr  - trill
 T   - tap
 TP  - trem. picking
 PM  - palm muting
\n/  - tremolo bar dip; n = amount to dip
 \n  - tremolo bar down
 n/  - tremolo bar up
/n\  - tremolo bar inverted dip
 =   - hold bend; also acts as connecting device for hammers/pulls
 <> - volume swell (louder/softer)
 x   - on rhythm slash represents muted slash
 o   - on rhythm slash represents single note slash

Misc Legend
-----------
 |  - bar
||  - double bar
||o - repeat start
o|| - repeat end
*|  - double bar (ending)
 :  - bar (freetime)
 $  - Segno
 &  - Coda
Tempo markers -  = BPM(8/16=s8/s16), where s8 = swing 8ths, s16 = swing 16ths



** Generated using Power Tab Editor by Brad Larsen: The Official Power Tab Web Site
Comments