Nickelback - Feelin Way Too Damn Good Chords & Tabs

 

Feelin Way Too Damn Good Chords & Tabs

Nickelback Chords & Tabs

Version: 1 Type: Bass Tab 0 ratings
1 star 2 stars 3 stars 4 stars 5 stars
comments

Feelin Way Too Damn Good Bass Tab

Band- Nickelback
Song- Feelin Way Too Damn Good

Intro - REST
G--------------------------------------------|
D--------------------------------------------|
A--------------------------------------------|
E--------------------------------------------|
B-------------------------------------------|

Verse
G--------------------------------------------|
D--------------------------------------------|
A------2-1------2-1--------------------------|
E--------------------------------------------|
B-31-------3-1------------------------------|

Bridge
G--------------------------------------------|
D-3-5----------------------------------------|
A--------------------------------------------|
E-----3-3--------1-3-------------------------|
B----------------------3-----------3/15\3----|

Verse
G--------------------------------------------|
D--------------------------------------------|
A------2-1------2-1--------------------------|
E--------------------------------------------|
B-31-------3-1------------------------------|

Bridge
G--------------------------------------------|
D-3-5----------------------------------------|
A--------------------------------------------|
E-----3-3--------1-3-------------------------|
B----------------------3-3-3-3-3-3-3-3-------|

Chorus
G-------------------------------------------------|
D-------------------------------------------------|
A-1-1-1-1-----------------------------------------|
E---------1-1-1-1----------33-3-3-1-1-1-1-3-3-3-3-|
B-----------------1-1-1-11------------------------|

G--------------------------------------------------|
D-5-3----------------------------------------------|
A-----5-3-1------1-1-1-1---------------------------|
E-----------3-1----------1-1-1-1----------33333333-|
B--------------------------------1-1-1-11----------|

G--------------------------------------------|
D--------------------------------------------|
A--------------------------------------------|
E-1-1-1-1-3-3-3-3----------------------------|
B-------------------------------------------|

Link
G--------------------------------------------|
D--------------------------------------------|
A-----------------2-2-2-2-1-1-1-1------------| X2
E--------------------------------------------|
B-3-33-3-1-1-1-1----------------------------|

Verse
G--------------------------------------------|
D--------------------------------------------|
A------2-1------2-1--------------------------|
E--------------------------------------------|
B-31-------3-1------------------------------|

Bridge
G--------------------------------------------|
D-3-5----------------------------------------|
A--------------------------------------------|
E-----3-3--------1-3-------------------------|
B----------------------3-3-3-3-3-3-3-3-------|
[ Tab from: http://www.guitartabs.cc/tabs/n/nickelback/feelin_way_too_damn_good_btab.html ]
Chorus
G-------------------------------------------------|
D-------------------------------------------------|
A-1-1-1-1-----------------------------------------|
E---------1-1-1-1----------33-3-3-1-1-1-1-3-3-3-3-|
B-----------------1-1-1-11------------------------|

G--------------------------------------------------|
D-5-3----------------------------------------------|
A-----5-3-1------1-1-1-1---------------------------|
E-----------3-1----------1-1-1-1----------33333333-|
B--------------------------------1-1-1-11----------|

G--------------------------------------------|
D--------------------------------------------|
A--------------------------------------------|
E-1-1-1-1-3-3-3-3----------------------------|
B-------------------------------------------|

Link
G--------------------------------------------|
D--------------------------------------------|
A-----------------2-2-2-2-1-1-1-1------------| X3
E--------------------------------------------|
B-3-33-3-1-1-1-1----------------------------|

G--------------------------------------------|
D--------------------------------------------|
A-----------------2-2-2-2-1~~~~--------------| X1
E--------------------------------------------|
B-3-33-3-1-1-1-1----------------------------|

No Bass

Verse
G--------------------------------------------|
D--------------------------------------------|
A------2-1------2-1--------------------------|
E--------------------------------------------|
B-31-------3-1------------------------------|

Bridge
G--------------------------------------------|
D-3-5----------------------------------------|
A--------------------------------------------|
E-----3-3--------1-3-------------------------|
B----------------------3-3-3-3-3-3-3-3-------|

Chorus
G-------------------------------------------------|
D-------------------------------------------------|
A-1-1-1-1-----------------------------------------|
E---------1-1-1-1----------33-3-3-1-1-1-1-3-3-3-3-|
B-----------------1-1-1-11------------------------|

G--------------------------------------------------|
D-5-3----------------------------------------------|
A-----5-3-1------1-1-1-1---------------------------|
E-----------3-1----------1-1-1-1----------33333333-|
B--------------------------------1-1-1-11----------|

G--------------------------------------------|
D--------------------------------------------|
A--------------------------------------------|
E-1-1-1-1-3-3-3-3----------------------------|
B-------------------------------------------|

Link
G--------------------------------------------|
D--------------------------------------------|
A-----------------2-2-2-2-1-1-1-1------------| X2
E--------------------------------------------|
B-3-33-3-1-1-1-1----------------------------|

G---------------------------------------------|
D---------------------------------------------|
A-----------------2~~~~--1~~~~----------------| X1
E---------------------------------------------|
B-3-33-3-1-1-1-1-----------------------------|
Comments