Nickelback - Cowboy Hat Chords & Tabs

 

Cowboy Hat Chords & Tabs

Nickelback Chords & Tabs

Version: 1 Type: Tab 0 ratings
1 star 2 stars 3 stars 4 stars 5 stars
comments

Cowboy Hat Tab

Cowboy Hat - Nickelback

symbols:
h - hammer on
/ \ - slide (up or down)
() - palm mute

Tuning: "Dropped B" (6th string down to B)
        

Intro/Verse Riff:
e-------------------------------------
B-------------------------------------
G-------------------------------------
D--0h1--------------7-7-7-7-7---------
A------2--2-2-5--5--0-0-0-0-0--7--7---
B------0--0-0-3--3-------------5--5---

"In Love With A Girl Whose Wrong For Me" Part:
e-------------------------------------------------------------------------------
B-------------------------------------------------------------------------------
G-------------------------------------------------------------------------------
D-------------------------------------------------------------------------------
A-------------------------------------------------------------------------------
B---0-0-0-0-0-0-0-0-0h3-3-3-3-3-3-3-3/10-10-10-10-10-10-10-10\5-5-5-5-5-5-5-5---

e---------5-------------------------------------------
B---------5-------------------------------------------
G---------2-----------------------------(2)-(2)-(2)---
D---------2-------------(2)-(2)-(2)-(2)-(2)-(2)-(2)---
A---------0-------------(0)-(0)-(0)-(0)-(0)-(0)-(0)---
B---0--0----------0--0--------------------------------

Chorus:
e------------------------------------
B------------------------------------
G---5--5-----------------------------
D---5--5------------------------2-2--
A---3--3----10---10-10--5--5-5--0-0--
B------------8----8--8--3--3-3-------
[ Tab from: http://www.guitartabs.cc/tabs/n/nickelback/cowboy_hat_tab.html ]
"You've Always Been So Much Easier To See.." Part
e----------------------------------------
B----------------------------------------
G----------------------------------------Play This 
D----------------------------------------3 times 
A---10-10-10-10-10-10-10-10-7-7--7--7-7--then:
B----8--8--8--8--8--8--8--8-5-5--5--5-5--

e------------------------------------------------------
B------------------------------------------------------
G------------------------------------------------------
D------------------------------------------------------
A---10-10-10-10-10-10-10-10-/12-12-12-12-12-12-12-12---
B----8--8--8--8--8--8--8--8-/10-10-10-10-10-10-10-10---

Bridge:
e------0-----0----------0-----0----------0-----0----------0-----0---0----
B--3-0---0-3---3-0--2-0---0-2---2-0--1-0---0-1---1-0--0-0---0-0---0------
G------------------------------------------------------------------------
D------------------------------------------------------------------------
A------------------------------------------------------------------------
B------------------------------------------------------------------------

e--------------------------------------------------
B--------------------------------------------------
G-------------------------------2-2-2-2-2-2-2-2----
D---(2)-(2)-(2)-(2)-(2)-(2)-(2)-2-2-2-2-2-2-2-2----
A---(0)-(0)-(0)-(0)-(0)-(0)-(0)-0-0-0-0-0-0-0-0----
B--------------------------------------------------

e---------5------------------------------------------------------------------
B---------5---------2-----2---------2----------------------------------------
G---------2---------2-----2---------2----------------------------------------
D---------2---------2-----2---------2---------(2)-(2)-(2)-(2)-(2)-(2)-(2)----
A---------0---------0-----0---------0---------(0)-(0)-(0)-(0)-(0)-(0)-(0)----
B---0--0------0--0----0-0-----0--0------0-0----------------------------------
Comments