Nickel Creek - Windmills Chords & Tabs

 

Windmills Chords & Tabs

Nickel Creek Chords & Tabs

Version: 1 Type: Chords 0 ratings
1 star 2 stars 3 stars 4 stars 5 stars
comments

Windmills Chords

   
D9sus4        D9sus4          D9sus4/G    D9sus4/A
e-------------------------------------------------------|
B--3-------------3--------------------------------------|
G--------0---------------0-------------0-------------0--|
D-----4-----(4)-------4-----(4)-----4-----(4)-----4-----|
A--5-------------5-----------------------------0--------|
D--------------------------------5----------------------|

   Bm7           Bm7           Bm7/A         B7sus4/A
e-------------------------------------------------------|
B--3-------------3-------------3-------------5----------|
G--------0-------------0-------------0---------------0--|
D-----4-----(4)-----4-----(4)-----4-----(4)-------4-----|
A--2-------------2-------------0-------------0----------|
D-------------------------------------------------------|

Chorus I
     Gmaj7              D         A          A
e-----------------------2--2--2--------------------------|
B------------3~~---3-3--3--3--3---2--2h3p2--2--X---------|
G--------0---------X-X--2--2--2---2--2---2--2--X---------|
D----/4------------X-X------------2--2h4p2--2--X---------|
A---------------------------------0~~~------0------------|
D----/4--------------------------------------------------|

     Gmaj7              D         A
e-----------------------2--2--2--------------------------|
B-----------------------3--3--3---2--2--2--2--X----------|
G--------0---------X-X--2--2--2---2--2--2--2--X----------|
D----/4------0~~---X-X--0--0--0---2--2--2--2--X----------|
A---------------------------------0--0--0--0-------------|
D----/4--------------------------------------------------|

Chorus II
     Gmaj7              D         A         A
e-----------------------2--2--2--------------------------|
B------------3~~--------3--3--3---2--2h3p2--2--X---------|
G--------0---------X-X--2--2--2---2--2---2--2--X---------|
D----/4------------X-X--0--0--0---2--2h4p2--2--X---------|
A---------------------------------0~~-------0------------|
D----/4--------------------------------------------------|


     Gmaj7              D         A         A
e-----------------------2--2--2--------------------------|
B-----------------------3--3--3---2--2h3p2--2--X---------|
G--------0---------X-X--2--2--2---2--2---2--2--X---------|
D----/4------0~~---X-X------------2--2h4p2--2--X---------|
A------------------X-X------------0~~-------0------------|
D----/4--------------------------------------------------|

     Gmaj7              D         A         A
e-----------------------2--2--2--------------------------|
B------------3~~--------3--3--3---2--2h3p2--2--X---------|
G--------0---------X-X--2--2--2---2--2---2--2--X---------|
D----/4------------X-X------------2--2h4p2--2--X---------|
A------------------X-X------------0~~-------0------------|
D----/4--------------------------------------------------|
[ Tab from: http://www.guitartabs.cc/tabs/n/nickel_creek/windmills_crd.html ]
     Gmaj7              Bm       A
e-----------------------2--2--2--------------------------|
B-----------------------3--3--3--2--2--------------------|
G--------0---------X-X--4--4--4--2--2--------------------|
D----/4------0~~---X-X--4--4--4--2--2--------------------|
A------------------X-X--2--2--2--0--0--------------------|
D----/4--------------------------------------------------|

Bridge
    G
e---------------------------------------------------------|
B---0-----------------------------------------------------|
G---0--------0--------------------------------------------|
D---0--------0--------------0-----------------------------|
A---X--------X--------------X--0--------------------------|
D---5-----4--5-----------4--5-----------------------------|

   Bm            F#           Em            G
e--2--2--2--2----2--2--2--2---0--0--0--0-------------------|
B--3--3--3--3----2--2--2--2---0--0--0--0----0--------------|
G--4--4--4--4----3--3--3--3---0--0--0--0----0--0-----0-----|
D--4--4--4--4----4--4--4--4---2--2--2--2----0--0-----0-----|
A--2--2--2--2----4--4--4--4---2--2--2--2----X--X-----X--0--|
D-----------------------------2--2--2--2----5-----4--5-----|

   Bm            A              Bb  F5  E5   D5
e--2--2--2--2--------------------------------------------|
B--3--3--3--3----2--2--2--2-----3------------------------|
G--4--4--4--4----2--2--2--2-----3------------2~~~~-------|
D--4--4--4--4----2--2--2--2-----3---3---2----0~~~~-------|
A--2--2--2--2----0--0--0--0-----1---3---2----0~~~~-------|
D-----------------------------------3---2----0~~~~-------|


Outro
    A           D9sus4
e---------------------------------------------|
B---2--2--2--2-----3--------------------------|
G---2--2--2--2----0---------------------------|
D---2--2--2--2---4----------------------------|
A---0--0--0--0--5-----------------------------|
D---------------0-----------------------------|


Intro - Main Riff x 2

Verse - Main Riff x 2
I spend too much time raiding windmills
We go side by side
Laughing until it's right

Chorus I
N.C.
        D                  A
There's something that you won't show
N.C.
    D             A
Waiting where the light goes

Verse - Main Riff x 2
Take the darkest hour-break it open
Water to repair what we have broken

Chorus II
N.C.
        D                  A
There's something that you won't show
N.C.
    D             A
Waiting where the light goes
N.C.
     D         A
And anyway the wind blows
N.C.
     Bm        A               G
It's all worth waiting for


Bm          F#         Em          A
Pull on the borders to lighten the load
Bm           A          Bb          F5    E5   D5
Tell all the passengers we're going home

Verse - Main Riff x 2
I spend too much time seeking shelter
World without end couldn't hold her

Chorus III - Use Chorus II tab
N.C.
        D                  A
There's something that you won't show
N.C.
    D             A
Waiting where the light goes
N.C.
    D            A
And anyway the wind blows
N.C.
     Bm        A              G
It's all worth waiting for

Outro
A               D9sus4
Anyway the wind blows
Comments