Nickel Creek - When You Come Back Down Chords & Tabs

 

When You Come Back Down Chords & Tabs

Nickel Creek Chords & Tabs

Version: 2 Type: Tab

When You Come Back Down Tab

   
 Riff A                            Riff B
e-------------------------------||-------------------------------|
B-------------------------------||-----------------5/7-5---------|
G-------2-----------------------||-------2---2-4-7-------7-4-----|
A-0-2-4-----4-7-7-7/9/7---4-2-0-||-0-2-4-------------------------|
D-------------------------------||-------------------------------|
E-------------------------------||-------------------------------|
[ Tab from: http://www.guitartabs.cc/tabs/n/nickel_creek/when_you_come_back_down_tab_ver_2.html ]
 Riff C                           Riff D
e-------------------------------||-------------------------------|
B-2-3--2-3--2-------------------||-------------------------------|
G-------------4-2-0-2-4---------||------------2-4----------------|
A-------------------------------||-----0--0-4-----5-0------------|
D-------------------------------||---2---------------------------|
E-------------------------------||-3-----------------------------|

 Riff E
 (Play this part leading into mandolin solo)
e-------------------------------|
B-------------------------------|
G-------------------------------|
A-0-2-4-5/4-2-0-----------------|
D-------------------------------|
E-------------------------------|