Nickchiff - Divertisemang Chords & Tabs

 

Divertisemang Chords & Tabs

Nickchiff Chords & Tabs

Version: 1 Type: Tab 0 ratings
1 star 2 stars 3 stars 4 stars 5 stars
comments

Divertisemang Tab

   
Written by: Erik Nilsson
2003

 D-hammer 4x  D-hammer 4x   7xG   7xEm  7xC
E--2h-----0-----2h-----0-----3-----0-----0-
B--3h-----2-----3h-----2-----0-----0-----1-
G--2h-----2-----2h-----2-----0-----0-----0-
D--0------0-----0------0-----0-----2-----2-
A----------------------------2-----2-----3-
E----------------------------3-----0-----0-

Repeat the above once, then:

  5xD    5x   4xA    7x   7xG   7xD   4xA    7x   7xG   7xD 
E--2-----0-----0-----0-----3-----2-----0-----0-----3-----2-
B--3-----2-----2-----1-----0-----3-----2-----1-----0-----3-
G--2-----2-----2-----2-----0-----2-----2-----2-----0-----2-
D--0-----0-----2-----0-----0-----0-----2-----0-----0-----0-
A--------------0-----3-----2-----------0-----3-----2-------
E--------------0-----------3-----------0-----------3-------


  5xEm  5xC   5xEm  5xC   5xAm 5xAmsus45xAm 5xAmsus45xEm 5xC   5xEm  5xC
E--0-----0-----0-----0-----0-----0------0-----0-----0-----0-----0-----0-
B--0-----1-----0-----1-----1-----3------1-----3-----0-----1-----0-----1-
G--0-----0-----0-----0-----2-----2------2-----2-----0-----0-----0-----0-
D--2-----2-----2-----2-----2-----2------2-----2-----2-----2-----2-----2-
A--2-----3-----2-----3-----0-----0------0-----0-----2-----3-----2-----3-
E--0-----0-----0-----0-----------0------------0-----0-----0-----0-----0-

[ Tab from: http://www.guitartabs.cc/tabs/n/nickchiff/divertisemang_tab.html ]
  4xA    7x   7xG   7xD   4xA    7x   7xG   7xD
E--0-----0-----3-----2-----0-----0-----3-----2-
B--2-----1-----0-----3-----2-----1-----0-----3-
G--2-----2-----0-----2-----2-----2-----0-----2-
D--2-----0-----0-----0-----2-----0-----0-----0-
A--0-----3-----2-----------0-----3-----2-------
E--0-----------3-----------0-----------3-------


   5x   5xD    5x   5xD   7xG                             5xEm   7xC   5xEm  7xC
E--0-----2-----0-----2-----3------4-----5-----6------7-----0------0-----0-----0-
B--2-----3-----2-----3-----0------0-----0-----0------0-----0------1-----0-----1-
G--2-----2-----2-----2-----0------0-----0-----0------0-----0------0-----0-----0-
D--0-----0-----0-----0-----0------0-----0-----0------0-----2------2-----2-----2-
A--------------------------2------3-----4-----5------6-----2------3-----2-----3-
E--------------------------3------4-----5-----6------7-----0------0-----0-----0-


  10x   10x   10x   10x   7xEm  7xC   4xA    7x   7xG   7xD   4xA    7x   7xG   7xD   
E--0-----0-----0-----0-----0-----0-----0-----0-----3-----2-----0-----0-----3-----2--
B--0-----0-----0-----0-----0-----1-----2-----1-----0-----3-----2-----1-----0-----3--
G--0-----0-----0-----0-----0-----0-----2-----2-----0-----2-----2-----2-----0-----2--
D--0-----0-----0-----0-----2-----2-----2-----0-----0-----0-----2-----0-----0-----0--
A--2-----2-----2-----2-----2-----3-----0-----3-----2-----------0-----3-----2--------
E--3-----2-----3-----2-----0-----0-----0-----------3-----------0-----------3--------

At last an fading Em.
Comments