Nick Jonas - I Do Chords & Tabs

 

I Do Chords & Tabs

Nick Jonas Chords & Tabs

Version: 1 Type: Tab 0 ratings
1 star 2 stars 3 stars 4 stars 5 stars
comments

I Do Tab

Retranscrit via son live au piano, donc avec une tonalité au-dessus pour garder 
l'accordage classique.

1rst Verse :

---------------------------------------------------------------|
---------------------------------------------------------------|
-----------------7-------------------------------------7-------|
--7--------------7---------------------7---------------7-------|
--7--------------5---------------------7---------------5-------|
--5------------------------------------5-----------------------|
 "Entered with a broken wing, When you showed up at my door,
[ Tab from: http://www.guitartabs.cc/tabs/n/nick_jonas/i_do_tab.html ]
e-----------------------------------------------------|
B-----------------------------------------------------|
G------------------------------------------------7----|
D-------4--------------3------------------2------7----|
A-------4--------------4------------------4------5----|
E-------2--------------1------------------0-----------|
 If you must, Know the truth; I knew that it was you.

e-------------------------------------|
B-------------------------------------|
G-------------------------------------|
D-----4----------------2---------7----|
A-----4----------------0---------7----|
E-----2----------------0---------5----|
So anywhere, where you are...  I do...
Comments