Nichols Joe - Brokenheartsville Chords & Tabs

 

Brokenheartsville Chords & Tabs

Nichols Joe Chords & Tabs

Version: 1 Type: Tab 0 ratings
1 star 2 stars 3 stars 4 stars 5 stars
comments

Brokenheartsville Tab

   
Joe Nichols
"Brokenheartsville"

--== Capo 1 ==--

(Intro)

------------------------------------------------------------
------------------8-----------------------------------------
-3---6p5p3-5/7\5---7p5\3-5-0---2-3-2-0----------------------
---3-----------------------------------3-1---0-1-0----------
---------------------------------------------------3-1------
------------------------------------------------------------

------------------------------------------------------------
------------------------------------------------------------
------------------------------------------------------------
----------1-3hold-then-slide-to-8---------------------------
-3b---1-3---------------------------------------------------
------------------------------------------------------------


(Intro)  A, Bsus, F#m, Dsus2, A, E

(Verse 1)
A                     E                   F#m    (Fill 1)
  He wore that cowboy hat to cover up his horns
A                       E                     F#m  (Fill 2)
  Sweet talkin' forked tongue had a tempin' charm
Dsus2                 E                    F#m   (Fill 3)
     Before I turned around that girl was gone
Dsus2                  E                         A      (Fill 4)
   All I can say is bartender pour me somethin' strong

(Chorus)
E                           F#m
Here's to the past they can kiss my glass
  Dsus2                 A    (Fill 4)
I hope she's happy with him
E                      F#m
Here's to the girl who wrecked my world
     Dsus2            E   (Fill 5)
That angel who did me in
A                           C#sus2
 I think the devil drives a Coup-DeVille
F#m                          Dsus2         (Fill 6)
    I watched him drive away over the hill
     A                         E
Not against her will, I've got time to kill
     Dsus2          E     A
(1,2)     Down in Brokenheartsville
   Dsus2          E     A          (Fill 4)
(3)     Down in Brokenheartsville

(Repeat Intro)

(Verse 2)
A                 E                     F#m   (Fill 1)
  It was long and chrome sittin' in the lot
A             E                  F#m   (Fill 2)
  Fire-engine red that thing was hot
Dsus2            E                F#m   (Fill 3)
     He reved it up she waved goodbye
Dsus2               E                A  (Fill 4)
     Love's gone to hell and so have I

(Chorus x2)

(Outro - repeat to fade)

--------------------------------------------------------------------------

(Intro)
[ Tab from: http://www.guitartabs.cc/tabs/n/nichols_joe/brokenheartsville_tab.html ]
------------------------------------------------------------
------------------8-----------------------------------------
-3---6p5p3-5/7\5---7p5\3-5-0---2-3-2-0----------------------
---3-----------------------------------3-1---0-1-0----------
---------------------------------------------------3-1------
------------------------------------------------------------

------------------------------------------------------------
------------------------------------------------------------
------------------------------------------------------------
----------1-3hold-then-slide-to-8---------------------------
-3b---1-3---------------------------------------------------
------------------------------------------------------------


(Fill 1)

E ---------------------------------------------
B ---------------------------------------------
G --5--4h5h4--2--4-----2----5--4h5h4--2--------
D ------------------4--------------------4--2--
A ---------------------------------------------
E ---------------------------------------------

(Fill 2)                                 (Fill 3)

E ----------------------------------     E -------------------------
B ------7---------------------------     B -------------------------
G --4^-----4^--2--4--2-------2h4h2--     G -------2-------2--4---7--
D ----------------------2h4---------     D --2h4--2--2h4--2--4---7--
A ----------------------------------     A --2h4-----2h4------------
E ----------------------------------     E -------------------------

(Fill 4)             (Fill 5)                      (Fill 6)

E --------------     E ------------------------     E --------------
B --------------     B ------------------------     E --------------
G --------------     G ------------------------     E --------------
D --------------     D ------------------2-----     E --------------
A --0-----------     A ----------2--2h4-----0--     A --5--4--2--0--
E -----4--2--0--     E --0--2h4----------------     E --------------

(Outro)

E ----------------------------------------------------------------------------
B ----------------------------------------------------------------------------
G --2--4--4h5h4--5--4----5--4h5h4--2--4---------------------------------------
D ---------------------------------------4----6--6/7--6--4--------------------
A -----------------------------------------------------------7--5----5--5--4--
E ----------------------------------------------------------------------------

E --------------------14--12h14--14h12--12h14--14h12------
B -----17/12--12--12--14--12h14--14h12--12h14--14h12--10--
G ----------------------------------------------------9---
D --------------------------------------------------------
A --------------------------------------------------------
E --7--5--------------------------------------------------
----------------------------------------------------------

(Chords)


    A   Bsus   C#sus2   Dsus2   E   F#m
E ---------0--------3-------0---0-----2--
B --2------0--------3-------3---0-----2--
G --2------4--------5-------2---1-----2--
D --2------4--------5-------0---2-----4--
A --0------2--------3-----------2-----4--
E ------------------------------0-----2--
Comments