Nice Stupid Playground - And I Dont Admire The Things You Do Chords & Tabs

 

And I Dont Admire The Things You Do Chords & Tabs

Nice Stupid Playground Chords & Tabs

Version: 1 Type: Tab 0 ratings
1 star 2 stars 3 stars 4 stars 5 stars
comments

And I Dont Admire The Things You Do Tab

   
Song : And I Don't Admire The Things You Do
Band : Nice Stupid Playground
Tabbed By : Diamond Jerry (Raptureboy182@yahoo.com)

Standard Tuning
-----------------------------------------------------------------------------

[VERSE1]

 (Guitar 1)	
	D	      G		          A     B     C#    D		
e|------------------------------------|--------------------------------------|
B|------7-----7-----------------------|--------------------------------------|
G|--------7---------------------------|--------------------------------------|
D|----7------------^-^^^^^---(3x)-----|--------------------------------------|
A|--5-------5------5-55555------------|--0000--2222--4444--5555--------------|
E|-----------------3-33333------------|--------------------------------------|


[VERSE2]

 (Guitar 1)
	D	      G		          A     B     C#    D		
e|------------------------------------|--------------------------------------|
B|------7-----7-----------------------|--------------------------------------|
G|--------7---------------------------|--2222--4444--6666---7----------------|
D|----7------------5-55555---(3x)-----|--2222--4444--6666---7----------------|
A|--5-------5------5-55555------------|--0000--2222--4444---5----------------|
E|-----------------3-33333------------|--------------------------------------|	

 (Guitar 2)
	D	      G		          A     B      C#      D		
e|------------------------------------|--------------------------------------|
B|------------------------------------|--------------------------------------|
G|---7-77777--------------------------|--------------------------------------|
D|---7-77777-------5-55555---(3x)-----|--7777--9999--11111111----------------|
A|---5-55555-------5-55555------------|--7777--9999--11111111--12------------|
E|-----------------3-33333------------|--5555--7777--9-9-9-9---10------------|


-----------------------------------------------------------------------------
[Chorus]

 (Guitar 1)
	Bm	   G	       D		   A		
e|---------------------------------------------------------------------------|
B|------3-----------3--------------7-----------------------------------------|
G|--------4-----------4----------7---7------------7--------------------------|
D|----4------------------------7-------7------------7--------(4x)------------|
A|--2-------------5---------5-------------------7----------------------------|
E|--------------3-----------------------------5------------------------------|

 (Guitar 2)
	Bm	  G	   D	     A	
e|---------------------------------------------------------------------------|
B|---3-33333-----------------------------------------------------------------|
G|---4-44444---------------7-77777-------------------------------------------|
D|---4-44444----5-55555----7-77777----7-77777----------------(4x)------------|
A|---2-22222----5-55555----5-55555----7-77777--------------------------------|
E|--------------3-33333---------------5-55555--------------------------------|


[VERSE3]
[ Tab from: http://www.guitartabs.cc/tabs/n/nice_stupid_playground/and_i_dont_admire_the_things_you_do_tab.html ]
 (Guitar 1)
	D	      G		          A     B     C#    D	
e|------------------------------------|--------------------------------------|
B|------7-----7-----------------------|--------------------------------------|
G|--------7---------------------------|--2222--4444--6666--7777--------------|
D|----7------------^-^^^^^---(3x)-----|--2222--4444--6666--7777--------------|
A|--5-------5------5-55555------------|--0000--2222--4444--5555--------------|
E|-----------------3-33333------------|--------------------------------------|

 (Guitar 2)
	D	      G		          A     B      C#       D	
e|------------------------------------|--------------------------------------|
B|------------------------------------|--------------------------------------|
G|---7-77777--------------------------|--------------------------------------|
D|---7-77777-------5-55555---(3x)-----|--7777--9999--11111111--12121212------|
A|---5-55555-------5-55555------------|--7777--9999--11111111--12121212------|
E|-----------------3-33333------------|--5555--7777--9-9-9-9---10101010------|


[VERSE4]
 
 (Guitar 1)
	D	      G		          A     B     C#    D
e|------------------------------------|--------------------------------------|
B|------7-----7-----------------------|--------------------------------------|
G|--------7---------------------------|--2222--4444--6666---7----------------|
D|----7------------^-^^^^^---(3x)-----|--2222--4444--6666---7----------------|
A|--5-------5------5-55555------------|--0000--2222--4444---5----------------|
E|-----------------3-33333------------|--------------------------------------|

 (Guitar 2)
	D	      G		   	  A     B      C#       D
e|------------------------------------|--------------------------------------|
B|------------------------------------|--------------------------------------|
G|---7-77777--------------------------|--------------------------------------|
D|---7-77777-------5-55555---(3x)-----|--7777--9999--11111111---12-----------|
A|---5-55555-------5-55555------------|--7777--9999--11111111---12-----------|
E|-----------------3-33333------------|--5555--7777--9-9-9-9----10-----------|

(Repeat Chorus)

(Solo) 

 (Guitar 1)		                  A     B     C#    D
e|------------------------------------|---------------------------------------|
B|------------------------------------|---------------------------------------|
G|------------------------------------|---------------------------------------| x2
D|--------2-4-2--------55-4-2---(3x)--|---------------------------------------|
A|--5-55------------------------------|--0000--2222--4444--5555---------------|
E|--------------3-3--3----------------|---------------------------------------|

 (Guitar 2)
	D	      G		          A     B      C#         D		
e|------------------------------------|---------------------------------------|
B|------------------------------------|---------------------------------------|
G|---7-77777--------------------------|---------------------------------------| x2
D|---7-77777-------5-55555---(3x)-----|--7777--9999--11111111---12121212------|
A|---5-55555-------5-55555------------|--7777--9999--11111111---12121212------|
E|-----------------3-33333------------|--5555--7777--9-9-9-9----10101010------|


(Repeat Chorus & Verse 3 & 4)

(Repeat Chorus, End on D)

------------------------------------------------------------------------------
Any comments or corrections,just mail me to Raptureboy182@yahoo.com/ICQ #115343571
Comments