Newton Faulkner - All I Got Chords & Tabs

 

All I Got Chords & Tabs

Newton Faulkner Chords & Tabs

Version: 7 Type: Tab

All I Got Tab

Hey, first tab. think it sounds accurate but not sure. this is as much as i have figured out yet.

Standard Tuning
Capo 6th fret


[ Tab from: http://www.guitartabs.cc/tabs/n/newton_faulkner/all_i_got_tab_ver_7.html ]
e--------------------------------2----2----3----3----3/5--2----2----2h3--|
B--0----0----1----1----3----3--------------------------------------------|
G----0----0----0----0----0----0----0----0----0----0---------0----0------0|
D--------------------------------0----0----2----2---------0----0----0----|
A----------------------2----2--------------------------------------------|
E--3----3----0----0------------------------------------------------------|


e------------------------------------------------------------3p0-----------|
B--3/5-----5\3--3--0--0h1p0-----------5\3--3--0--0--1--3-------------------|
G----------4\2--2--0---------0--------4\2--2--0-----------0----------------|
D-------------------------------0------------------------------------------|
A--------------------------------------------------------------------------|
E-------0-------2--3---------------0-------2--3----------------------------|