Newsboys - When The Tears Fall Chords & Tabs

 

When The Tears Fall Chords & Tabs

Newsboys Chords & Tabs

Version: 1 Type: Bass Tab

When The Tears Fall Bass Tab

   
-----------------------------------------------------------------------------
			 WHEN THEN TEARS FALL - Newsboys
-----------------------------------------------------------------------------

Tabbed By : David Nguyen
e-mail: digitalfeed@hotmail.com

Tuning: Standard
=============================================================================

[ No Bass Until Chorus Begins ]


[ CHORUS ]
G|--------------|--------------|--------------|--------------|
D|--------------|--------------|--------------|--------------|
A|--------------|--------------|--------------|--------------|
E|-7\5----------|--4-----7-----|--5-----------|--4-----7-----|


G|--------------|--------------|--------------|--------------|
D|--------------|--------------|--------------|--------------|
A|--------------|--------------|--------------|--------------|
E|--5-----------|--9-----7-----|--5 ~ --------|--------------|



[ VERSE 2 ]
G|--------------|--------------|--------------|--------------|
D|--------------|--------------|--------------|--------------|
A|--------------|--------------|--------------|--------------|
E|--5-----------|--7-----9-----|--5-----------|--9------7----|

G|--------------|--------------|--------------|--------------|
D|--------------|--------------|--------------|--------------|
A|--------------|--------------|--------------|--------------|
E|--5-----------|--7-----9-----|--5-----------|--9------7----|



[ CHORUS & BRIDGE ] -- 1:16
G|--------------|--------------|--------------|
D|--------------|--------------|--------------|
A|--------------|--------------|--------------|
E|--5-----------|--4-----7-----|--5-----------|

G|--------------|--------------|--------------|
D|--------------|--------------|--------------|
A|--------------|--------------|--------------|
E|--4-----7-----|--5-----------|--9-----7-----|

G|--------------|--------------|--------------|
D|--------------|--------------|--------------|
A|--------------|--------------|--------------|
E|--5--------4--|--5--------4--|--5--5--5--5--|

G|--------------||
D|--------------||
A|--------------||
E|--4 ~ --------||



G|--------------|--------------|--------------|
D|--------------|--------------|--------------|
A|--------------|--------------|--------------|
E|--5--5--5--5--|--5--5--5--5--|--7--7--7--7--|


G|--------------|--------------|--------------|
D|--------------|--------------|--------------|
A|--------------|--------------|--------------|
E|--4--4--4--4--|--5--5--5--5--|--5--5--5--5--|

G|--------------|--------------||
D|--------------|--------------||
A|--------------|--------------||      Repeat X 2      
E|--7--7--7--7--|--0--0--0--0--||    



G|--------------|--------------|--------------|
D|--------------|--------------|--------------|
A|--------------|--------------|--------------|
E|--5--5--5--5--|--5--5--5--5--|--4--4--4--4--|

G|--------------|--------------|--------------|
D|--------------|--------------|--------------|
A|--------------|--------------|--------------|
E|--7--7--7--7--|--5--5--5--5--|--5--5--5--5--|

G|--------------|--------------|--------------|
D|--------------|--------------|--------------|
A|--------------|--------------|--------------|
E|--4--4--4--4--|--7--7--7--7--|--5--5--5--5--|

G|--------------|--------------|--------------|
D|--------------|--------------|--------------|
A|--------------|--------------|--------------|
E|--5--5--5--5--|--9--9--9--9--|--7--7--7--7--|

G|--------------||
D|--------------||
A|--------------||
E|--5 ~ --------||



[ REPETITION ]  -  2:32
G|--------------|--------------|--------------|
D|--------------|--------------|--------------|
A|--------------|--------------|--------------|
E|--5-----------|--7-----------|--5-----------|

[ Tab from: http://www.guitartabs.cc/tabs/n/newsboys/when_the_tears_fall_btab.html ]
G|--------------|--------------|--------------|
D|--------------|--------------|--------------|
A|--------------|--------------|--------------|
E|--7-----9-----|--5-----------|--4-----7-----|

G|--------------|--------------|--------------|
D|--------------|--------------|--------------|
A|--------------|--------------|--------------|
E|--5-----------|--4-----7-----|--5-----------|

G|-------------||
D|-------------||
A|-------------||
E|--9-----7----||

G|--------------|--------------|--------------|
D|--------------|--------------|--------------|
A|--------------|--------------|--------------|
E|--5--5--5--5--|--5--5--5--5--|--5--5--5--5--|

G|--------------|--------------|--------------|
D|--------------|--------------|--------------|
A|--------------|--------------|--------------|
E|--5--5--5--5--|--5--5--5--5--|--5--5--5--5--|

G|--------------|--------------|--------------|
D|--------------|--------------|--------------|
A|--------------|--------------|--------------|
E|--7--7--7--7--|--4--4--4--4--|--5--5--5--5--|

G|--------------|--------------|--------------|
D|--------------|--------------|--------------|
A|--------------|--------------|--------------| 
E|--5--5--5--5--|--7--7--7--7--|--0--0--0--0--|

G|--------------|--------------|--------------|
D|--------------|--------------|--------------|
A|--------------|--------------|--------------|
E|--5--5--5--5--|--5--5--5--5--|--7--7--7--7--|

G|--------------|--------------|--------------|
D|--------------|--------------|--------------|
A|--------------|--------------|--------------|
E|--4--4--4--4--|--5--5--5--5--|--5--5--5--5--|

G|--------------|--------------|-------------||
D|--------------|--------------|-------------||
A|--------------|--------------|-------------|| 
E|--7--7--7--7--|--0--0--0--0--|--0 ~ -------||

G|--------------|--------------|--------------|
D|--------------|--------------|--------------|
A|--------------|--------------|--------------|
E|--5-----------|--4-----7-----|--4-5---------|

G|--------------|--------------|--------------|
D|--------------|--------------|--------------|
A|--------------|--------------|--------------|
E|--4-----2-----|--4-5---------|--4-----7-----|

G|--------------|--------------||
D|--------------|--------------||
A|--------------|--------------||
E|--4-5---------|--7-----------||

G|--------------|--------------|--------------|
D|--------------|--------------|--------------|
A|--------------|--------------|--------------|
E|--5--5--5--5--|--5--5--5--5--|--7--7--7--7--|

G|--------------|--------------|--------------|
D|--------------|--------------|--------------|
A|--------------|--------------|--------------|
E|--4--4--4--4--|--5--5--5--5--|--5--5--5--5--|

G|--------------|--------------||                       |--------------||
D|--------------|--------------||                       |--------------||
A|--------------|--------------|| Repeat X 6  ... then  |--------------||
E|--7--7--7--7--|--0--0--0--0--||                       |--5 ~ --------||


G|--------------|--------------|--------------|
D|--------------|--------------|--------------|
A|--------------|--------------|--------------|
E|--7-----0-----|--4-5---------|--7-----0-----|

G|--------------|--------------|--------------|
D|--------------|--------------|--------------|
A|--------------|--------------|--------------|
E|--4-5---------|--7-----0-----|--4-5---------|

G|--------------|--------------|--------------|
D|--------------|--------------|--------------|
A|--------------|--------------|--------------|
E|--7-----0-----|--4-5 ~ ------|--------------|


| /  slide up
| \  slide down
| h  hammer-on
| p  pull-off
| ~  let ring
| +  harmonic
| x  Mute note
=============================================================================