Newsboys - Spirit Thing Chords & Tabs

 

Spirit Thing Chords & Tabs

Newsboys Chords & Tabs

Version: 3 Type: Tab 0 ratings
1 star 2 stars 3 stars 4 stars 5 stars
comments

Spirit Thing Tab

   
Newsboys
Going Public
Spirit thing
Jed Carson
jclgreat@juno.com
members.xoom.com/jclg/jed.html


Forward by Hallam Drury

I'm trying to put heaps of Christian tabs on here from some of my favorite
songs, so I've got this off another site to put it here for you.
If you'd like me to tab or find a song for you email me at
                      r_e_n_e_g_a_d_e@hotmail.com
For this song, I have included what should be everything you need
to play this great song!

                          Hallam:)


Capo I

Intro
------------------------------------------------------------------------------|
------5-----5------0----------------------------------------------------------|
--3h4----4-----4---0----------------------------------------------------------|
------------------------------------------------------------------------------|
------------------------------------------------------------------------------|
------------------------------------------------------------------------------|

Intro2/Chorus
------------------------------------------------------------------------------|
------------------------------------------------------------------------------|
------------------------------------------------------------------------------|
------------------------------------------------------------------------------|
--------2---------3---------2---------0---------------------------------------|
--0--3------0--3------0--3------0--2-----3-2----------------------------------|

Solo a
------0-----0----------0-----0------------------------------------------------|
------------------------------------------------------------------------------|
--3h4----4-----4---4h6----6-----6---------------------------------------------|
------------------------------------------------------------------------------|
------------------------------------------------------------------------------|
------------------------------------------------------------------------------|


Solo B (comes in after 2 of measure A
------------------------------------------------------------------------------|
------------------------------------------------------------------------------|
------------------------------------------------------------------------------|
------------------------------------------------------------------------------|
-----------------0-------------------------0----------------------------------|
--0h2--0--3---0------3-2----0h2--0--3---0-------------------------------------|
[ Tab from: http://www.guitartabs.cc/tabs/n/newsboys/spirit_thing_tab_ver_3.html ]
End (fade out)
------------------------------------------------------------------------------|
------5-----------------------------------------------------------------------|
--3h4----4--------------------------------------------------------------------|
------------------------------------------------------------------------------|
------------------------------------------------------------------------------|
------------------------------------------------------------------------------|

CHORDS
-------

----------------------------------------------------
| Spirit Thing                                     |
| by: Newsboys                                     |
| CD: Going Public                                 |
| from: tberg@uakron.edu (Tim Berg)                |
| edited by: exarkun@interserv.com (Brian Kurtyka) |
| copyright: Star Song Communications              |
----------------------------------------------------

CHORDS:
   Fm           133111
   Ab           466544
   Eb           x6888x
   Db           x4666x

INTRO:
e-----1---1-----|
B-0h1---1---1---|
G---------------|

Fm Db Ab Eb (x4)

VERSE 1:
Ab                Db
It's not a family trait
                    Eb
It's nothing that I ate
                        Db
And it didn't come from skating with holy rollers
Ab                    Db
It's an early warning sign
                    Eb
It keeps my life in line
                       Db
But, it's so hard to define never mind

CHORUS:
            Fm
It's just a Spirit thing
            Db
It's like a holy nudge
            Ab                   Eb
It's like a circuit judge in the brain
            Fm
It's just a Spirit thing
             Db
It's here to guard my heart
            Ab               Eb
It's just a little hard to explain

VERSE 2:
Ab               Db
It pushes when I quit
                   Eb
It smells a counterfeit
                      Db
Sometimes, it works a bit like a teleprompter
Ab                      Db
When it's teleprompting you
                     Eb
I pray you'll let it through
                           Db
And I'll help you with the how, but for now

CHORUS

PSEUDO-BRIDGE:
Fm Bb (x6)

BRIDGE:  (Continue Chord Progression)

I've took the pulput then backed down again

Some things in heaven cannot be explained

CHORUS
Comments