Newsboys - Spirit Thing Chords & Tabs

 

Spirit Thing Chords & Tabs

Newsboys Chords & Tabs

Version: 2 Type: Tab 0 ratings
1 star 2 stars 3 stars 4 stars 5 stars
comments

Spirit Thing Tab

   
Newsboys
Spirit Thing


its a very good song i likes it...

intro

E|-----------------|
B|-----7---7--\-2--|
G|-5h6---6---6\-2--|
[ Tab from: http://www.guitartabs.cc/tabs/n/newsboys/spirit_thing_tab_ver_2.html ]
verses and choruses are basically the same change to the way it sounds on the cd
  
   A/Gb   Asus4/Gb    A    E   Asus2
E|--0--------0--------0----0-----0----|
B|--2--------3--------2----0-----0----|
G|--2--------2--------2----1-----2----|
D|--4--------4--------2----2-----2----|
A|--0--------0--------0----2-----2----|
E|--X--------0--------0----0-----0----|
Comments