Newsboys - Real Good Thing Chords & Tabs

 

Real Good Thing Chords & Tabs

Newsboys Chords & Tabs

Version: 1 Type: Tab 0 ratings
1 star 2 stars 3 stars 4 stars 5 stars
comments

Real Good Thing Tab

   
Real Good Thing
Newsboys
CD: Going Public
c1994 Ariose Music
Written by Jody Davis, Peter Furler, Steve Taylor
Tabbed by Steve Cruickshank
(postlambjam@hotmail.com)


Forward by Hallam Drury

I'm trying to put heaps of Christian tabs on here from some of my favorite
songs, so I've got this off another site to put it here for you. 
If you'd like me to tab or find a song for you email me at 
                      r_e_n_e_g_a_d_e@hotmail.com

                          Hallam:)
Bass intro:
G----------------------------------------
D-------------------------------1p0------
A----------3--1p0-------3-1-3-------3----
E---3-1-3---------3----------------------

G----------------------------------------
D----------------------------------------
A----------3--1p0------------------------
E---3-1-3---------3-----3-1-3------------



Chorus;
        g                 C
When we don't get what we deserve
                   g                  g
That's a real good thing, a real good thing
        g                 C
When we get what we don't deserve
                   g                  g
That's a real good thing, a real good thing


[ Tab from: http://www.guitartabs.cc/tabs/n/newsboys/real_good_thing_tab.html ]
Verse riff in C
e-------------------------------------------------------------------------------
B---5h6--5----------------------------------------------------------------------
G---5----5----5---3-5------(x4)-------5b7r5--3----------------------------------
D---5----5----5---3-5-----------------------------------------------------------
A-------------------------------------------------------------------------------
E-------------------------------------------------------------------------------

C               C
Born to sin and then get caught
C                  C
All our good deeds don't mean squat


g
Sell the Volvo, shred the Visa
Bb
Send the cash to Ma Teresa
C
Great idea, the only catch is
    F
You don't get saved on merit badges


[chorus]


Verse 2:

Doctor's coming, looking grim
'Do you have a favorite hymn?'

Check your balance through the years
All accounts are in arrears
Guilt is bitter, grace is sweet
Park it here on the mercy seat


[chorus]



Bridge: Distorted electric guitar (keyboard plays Gm)
e-------------------------------------------------------------------------------
B-------------------------------------------------------------------------------
G-------------------------------------------------------------------------------
D-------------------------------------------------------------------------------
A-------------------------------------------------------------------------------
E----3-------3-------3-------3--------------------------------------------------


[chorus]
Comments