Newsboys - Hallelujah Chords & Tabs

 

Hallelujah Chords & Tabs

Newsboys Chords & Tabs

Version: 1 Type: Bass Tab 0 ratings
1 star 2 stars 3 stars 4 stars 5 stars
comments

Hallelujah Bass Tab

Artist: Newsboys
CD: Step Up to the Microphone
Title: Hallelujah
Transcribed by: Jae Ogilvie

I use a 5-string, so if you only have a 4-string, you'll have to drop-D
tune and transpose where necessary. I've done my best to get this right,
but like all bass players, Phil Joel and Jody Davis (the Newsboys' 
bassists), mix in some other notes too. This should get you well on your
way though. Any comments, suggestion or critiques can be sent to
JaeO@ovation.net. Keep on playing for God, he gets a big old grin on his
face when you do!

PART #1 (INTRO.)
B-----------------------------------------------------------------------
E-2-2-2---------------2-2-2---------------------------------------------
A-------2-2-3-3-4-4---------2-2-3-3-4-4---4-----------------------------
D-------------------2-------------------2-------------------------------
G-----------------------------------------------------------------------

PART #2         
B-----------------------------------------------------------------------
E-2\0--5\0--------------------------------------------------------------
A-----------2\0--5/7----------------------------------------------------
D-----------------------------------------------------------------------
G-----------------------------------------------------------------------
[ Tab from: http://www.guitartabs.cc/tabs/n/newsboys/hallelujah_btab.html ]
PART #3 ..."SING HALLELUJAH..." (HIT THESE NOTES MORE THAN ONCE)
B----------3---0-2--=---------------------------------------------------
E------------3------=------2-5------------------------------------------
A-5---2-4-----------=--5------------------------------------------------
D---5---------------=----5----------------------------------------------
G-------------------=---------------------------------------------------
                       ^ DO ONLY LAST BAR OF EACH TIME

PART #4 (SOLO-TYPE THING)
B-------------------------15------------------------------------15------
E-------------15-17-15-12----12-15-12--------------15-17-15--12----12\0-
A-16-17----12--------------------------16-17----12----------------------
D-------14-----------------------------------14-------------------------
G-----------------------------------------------------------------------

PART #5
B-----------------------------------------------------------------------
E-1-1-1-1-1-1---------3-3-3-3-3-3---------------------------------------
A-------------3-5---5-------------5-7---5-------------------------------
D-----------------3-------------------5---------------------------------
G-----------------------------------------------------------------------

ORDER OF PLAYIN'S
PART #1 X 4
PART #2 X 2
PART #1 X 13
PART #3 X 2
PART #4 X 2
PART #5 X 1
PART #4 X 2
PART #3 X 4

Comments