New Order - Turn My Way Chords & Tabs

 

Turn My Way Chords & Tabs

New Order Chords & Tabs

Version: 1 Type: Chords 0 ratings
1 star 2 stars 3 stars 4 stars 5 stars
comments

Turn My Way Chords

   
#----------------------------------PLEASE NOTE---------------------------------#
#This file is the author's own work and represents their interpretation of the #
#song. You may only use this file for private study, scholarship, or research. #
#------------------------------------------------------------------------------#

Turn my way

by New Order
from new album 'get ready'

transcribed by Christian Reindel(creindel@gmx.de)
any questions or corrections- e-mail me

normal tuning - only the basics

   main riff - play this the whole song
             - pick the chords in the intro,verse,outro
             - strum the chords in the chorus

    Dm          Cadd9        Bb           F
E:|--1-----------0-----------1------------1-----------|
B:|--3-----------3-----------3------------1-----------|
G:|--2-----------0-----------3------------2-----------|
D:|--0-----------2-----------3------------3-----------|
A:|--------------3-----------1------------3-----------|
E:|---------------------------------------1-----------|

 guitar solo
E:|---------------------------------------------------------|
B:|---------------------------------------------------------|
G:|---------------------------------------------------------|
D:|--12~---12-12-12--10~---10-10-10--8~---8-8-8-------------|
A:|---------------------------------------------8~---8-8-8--|
E:|---------------------------------------------------------|

==========================================================================================================

Run wild

by New Order
from new album 'get ready'

transcribed by Christian Reindel(creindel@gmx.de)
any questions or corrections- e-mail me
[ Tab from: http://www.guitartabs.cc/tabs/n/new_order/turn_my_way_crd.html ]
Normal tuning (E,A,D,G,B,E)

all verses and instrumental parts ( E   A )


Bass-Solo
   E                        A
E:|------------------------|-----------------------|
B:|------------------------|-----------------------|
G:|------------------------|-----------------------|
D:|------6-7-6-6---66------|-------6-7-9-9---99----| 2 times
A:|-7-7--------------------|--7-7------------------|
E:|------------------------|-----------------------|

   E                        A
E:|------------------------|-----------------------|
B:|------------------------|-----------------------|
G:|------------------------|-----------------------|
D:|-7-7--7-6---------------|--9-9--9-7--6-6---66---|2 times
A:|----------7-7---77------|-----------------------|
E:|------------------------|-----------------------|


Interlude 


Bass-Solo
   E                        A
E:|------------------------|-----------------------|
B:|------------------------|-----------------------|
G:|------------------------|-----------------------|
D:|------6-7-6-6---66------|-------6-7-9-9---99----| 2 times
A:|-7-7--------------------|--7-7------------------|
E:|------------------------|-----------------------|

   E                        A
E:|------------------------|-----------------------|
B:|------------------------|-----------------------|
G:|------------------------|-----------------------|
D:|-7-7--7-6---------------|--9-9--9-7--6-6---66---|2 times
A:|----------7-7---77------|-----------------------|
E:|------------------------|-----------------------|

Orchester part

E  A  (3 times) 

C  A  (1 time)



Comments