New Order - Temptation Chords & Tabs

 

Temptation Chords & Tabs

New Order Chords & Tabs

Version: 1 Type: Bass Tab 0 ratings
1 star 2 stars 3 stars 4 stars 5 stars
comments

Temptation Bass Tab

New Order - "Temptation"

Beginning:

A---------------------------------5---5---5-5---5---5--
D-3-3-3-3-3-3-3---3-3-3-3-3-3-3-3---3---3-----3---3----
G---------------3-------------------------------------3.....

Lyrics:

A-----5-5-3  (x3) [then] ----5-5-3-3-5-3-5-3-5-3-5-5   repeat as needed
D-3-3-----               3-3------------------------


"ooo" sequence:
[ Tab from: http://www.guitartabs.cc/tabs/n/new_order/temptation_btab.html ]
A-------------0-0-0-0-0-0---------0---0---0---0-0
D-3-3-3-3-3-3-------------3-3-3-3---3---3---3----

A-----------0-0-0-0-0-0---------5---5---5---5--
D-3-3-3-3-3-------------3-3-3-3---3---3---3---3....


"eyes" sequence:

G---0-5-9--                --5---5---5---5-5
A---------3  (x2)  [then]  3---3---3---3----
D-3--------


"last time" sequence:

G-------------0-0-0-0-0-0-----------5-5-5-5-5-5
A-------------------------3-3-3-3-3------------
D-3-3-3-3-3-3----------------------------------


transcribed by Shannon Burgess
forwarded on by Joe Schalk

Comments