New Order - Run Wild Chords & Tabs

 

Run Wild Chords & Tabs

New Order Chords & Tabs

Version: 1 Type: Tab 0 ratings
1 star 2 stars 3 stars 4 stars 5 stars
comments

Run Wild Tab

   
Run wild

by New Order
from new album 'get ready'

transcribed by Christian Reindel(creindel@gmx.de)
any questions or corrections- e-mail me

Normal tuning (E,A,D,G,B,E)

all verses and instrumental parts ( E   A )

E            A
open heart empty spaces

E            A
dusty roads to distant places
...

Bass-Solo
   E                        A
E:|------------------------|-----------------------|
B:|------------------------|-----------------------|
G:|------------------------|-----------------------|
D:|------6-7-6-6---66------|-------6-7-9-9---99----| 2 times
A:|-7-7--------------------|--7-7------------------|
E:|------------------------|-----------------------|

   E                        A
E:|------------------------|-----------------------|
B:|------------------------|-----------------------|
G:|------------------------|-----------------------|
D:|-7-7--7-6---------------|--9-9--9-7--6-6---66---|2 times
A:|----------7-7---77------|-----------------------|
E:|------------------------|-----------------------|


Interlude 
[ Tab from: http://www.guitartabs.cc/tabs/n/new_order/run_wild_tab.html ]
Cis                     A                   E      (4 times)
you the kind of person that I always wanna to be real
...

E               A
If jesus comes to take your hand
...

Bass-Solo
   E                        A
E:|------------------------|-----------------------|
B:|------------------------|-----------------------|
G:|------------------------|-----------------------|
D:|------6-7-6-6---66------|-------6-7-9-9---99----| 2 times
A:|-7-7--------------------|--7-7------------------|
E:|------------------------|-----------------------|

   E                        A
E:|------------------------|-----------------------|
B:|------------------------|-----------------------|
G:|------------------------|-----------------------|
D:|-7-7--7-6---------------|--9-9--9-7--6-6---66---|2 times
A:|----------7-7---77------|-----------------------|
E:|------------------------|-----------------------|

Orchester part

E  A  (3 times) 

C  A  (1 time)

E            
Good times around the corner

A            
Good times around the corner
...

Ending

Cis       A          E
I gonna live 'til I die

Cis        A          E
I gonna live to get high

End.
Comments