New Order - Krafty Chords & Tabs

 

Krafty Chords & Tabs

New Order Chords & Tabs

Version: 1 Type: Tab 0 ratings
1 star 2 stars 3 stars 4 stars 5 stars
comments

Krafty Tab

   
-------------------------------------------------------------------------------
			     KRAFTY - New Order
-------------------------------------------------------------------------------
Tabbed by:Alberto González. 
I want to dedicate this tab to my girlfriend
Carolyn who I love very very much (Yes I tabbed it out with her in mind):D.Some New
Order songs remind her of me :">. I hope the tab is good enough for people to play
and this tab would have
never been possible if it wasn't for my cutie Carolyn (CC) I Love you! 
And I hope the rest of you enjoy this tab ;)

Email: Please E-mail me for any questions or 
comments @ wildmoodswingz@aol.com

Tuning:EADGBe

The chords for this song are D G D G A and somtimes just D G D G
[ Tab from: http://www.guitartabs.cc/tabs/n/new_order/krafty_tab.html ]
The part that starts @ 00:07
e|---------------------------------------------------------------------------|
B|---------------------------------------------------------------------------|
G|---------------------------------------------------------------------------|
D|-0-0-4-0-0-0-7-7-7-7-0-0-5-0-5-0-7-7-7-7---repeat--------------------------|
A|---------------------------------------------------------------------------|
E|---------------------------------------------------------------------------|
Keyboard arranged for Guitar @ 02:44
e|---------------------------------------------------------------------------|
B|-7-7-7-5-7-5-7-8-10-8-7-5-5-5-3-5-3-5-3-5-7---repeat-----------------------|
G|----------------------------------------------once-------------------------|
D|----------------------------------------------more-------------------------|
A|---------------------------------------------------------------------------|
E|---------------------------------------------------------------------------|
Simple but great Guitar solo @ 02:58
e|---------------------------------------------------------------------------|
B|---------------------------------------------------------------------------|
G|---------------------------------------------------------------------------|
D|--7-7-7-7-7-7-7-5-4-4-7-7-7-7-7-7-7-5-4-4-4-4-5-5-5-5-5-5-5-4-2-2-2-2-5-5-5|
A|---------------------------------------------------------------------------|
E|---------------------------------------------------------------------------|

e|---------------------------------------------------------------------------|
B|---------------------------------------------------------------------------|
G|---------------------------------------------------------------------------|
D|-5-5-5-5-4-2-2-2-2-4-4-4-4/5-7-7-7-7\5-4-4-4-4/5-7-7-7-7\5-4-4-------------|
A|---------------------------------------------------------------------------|
E|---------------------------------------------------------------------------|
Then @ 03:24 and repeat those licks @ 04:07
                   
e|---------2-2-2-2--------2-----------2-------2-----------2-------2-----------2-|
B|---------3-3-3-3------3---3-----3---------3---3-----3---------3---3-----3-----|
G|---------2-2-2-2----2---------2---2-----2---------2---2-----2---------2---2---|
D|-0-0-0-0-0-0-0-0--0---------0---------0---------0---------0---------0---------|
A|------------------------------------------------------------------------------|
E|------------------------------------------------------------------------------|

e|------2---------2---3------------------------------------------------------|
B|----3---3-----3---3--------------------------------------------------------|
G|--2---------2--------------------------------------------------------------|
D|0---------0----------------------------------------------------------------|
A|---------------------------------------------------------------------------|
E|---------------------------------------------------------------------------|



| /  slide up
| \  slide down
| h  hammer-on
| p  pull-off
| ~  vibrato
| +  harmonic
| x  Mute note
===============================================================================
Comments