New Order - Bizzare Love Triangle Chords & Tabs

 

Bizzare Love Triangle Chords & Tabs

New Order Chords & Tabs

Version: 2 Type: Tab 0 ratings
1 star 2 stars 3 stars 4 stars 5 stars
comments

Bizzare Love Triangle Tab

   
Bizzare Love Triangle by New Order

Tabbed by: ken >:) pogi

E-mail: gratome33_kenslash@yahoo.com
        kenslash_gratome33@lycos.com
        kenslashgratome_kizomo@yahoo.com
        cuemyd@yahoo.com
        bvrattinnella@yahoo.com

        
(totoo yan ah! promise d k mag ccc!>)


Intro:

C F G Em Am


E|-----------------------------------------------------|
B|---1---------------------3---------------------------|
G|----------2----------------------4-------------------| (2x)
D|--------------------3--------------------5-----------|
A|-----------------------------------------------------|
E|-----------------------------------------------------|


[ Tab from: http://www.guitartabs.cc/tabs/n/new_order/bizzare_love_triangle_tab_ver_2.html ]
E|----------------------------|
B|---0------------------------|
G|-----------0----------------|
D|-------------------2--------|  (2x)
A|----------------------------|
E|----------------------------|



E|----------------------------|
B|---1------------------------|
G|-----------2----------------|  (2x)
D|--------------------2-------|
A|----------------------------|
E|----------------------------|

<<>>

Pagpasenxahan nio n lng 2!kc ko lng nman ang kpa n2!
Please rate nio 2!!!!!plis!plis!plis!!!!!!!!!!!
At tenkyu nga rin pla s mga fans ko n ptuloy n sumosuporta!
Luv u all!mga fans!lalo n s mga tga tps! bumili lhat ang
Estujante ng Album ko! ty nga rin pla s warner music!ty s lhat!tenkyu lord!mabuhay ako!
Comments