New Order - 60mph Chords & Tabs

 

60mph Chords & Tabs

New Order Chords & Tabs

Version: 1 Type: Tab 0 ratings
1 star 2 stars 3 stars 4 stars 5 stars
comments

60mph Tab

Main riff
e|---------------------------------------------------------------------------|
B|---------------------------------------------------------------------------|
G|-------------------------------------------9-9-9-9-7-5-4-5-7-7-7-5-5-------|
D|-------9-7-5-7-5-----------------9-7-5-7-9---------------------------5-5---|
A|-7-7-7-----------7-7-7-7-7-10-10-------------------------------------------|
E|---------------------------------------------------------------------------|
[ Tab from: http://www.guitartabs.cc/tabs/n/new_order/60mph_tab.html ]
e|--------------|
B|--------------|
G|--------------|
D|-7-7-7-5------|
A|---------7\\--|
E|--------------|

Inturlude (not too sure about this)
e|------------------------------------|
B|------------------------------------|
G|------------------------------------|
D|---7-7-9-7-5-7-5------7-7-5-5-------|
A|-7---------------7--7----------7\\--|
E|------------------------------------|

That's all i've done so far, comments and corrections to: martynmc7@aol.com,
feel free to use or expand apon what i've done here for your own tab.
Comments