New Model Army - Vengeance Chords & Tabs

 

Vengeance Chords & Tabs

New Model Army Chords & Tabs

Version: 2 Type: Bass Tab 0 ratings
1 star 2 stars 3 stars 4 stars 5 stars
comments

Vengeance Bass Tab

   
"Vengeance" by New Model Army (from the album "Vengeance")
==========================================================

Transcribed by : Gilles Velay (gvelay@club-internet.fr)

Any comments, corrections or suggestions ?
Please email me at gvelay@club-internet.fr

Notation :
	w : whole         b : bend
	h : half          r : release bend
	q : quarter       p : pull off
	e : 8th           h : hammer on
	s : 16th          <>: harmonic

Intro Riff
==========
     q+e         q+e         q   
G-|-------------<7>----------------|
D-|-<12>--------------------<7>----|
A-|--------------------------------|
E-|--------------------------------|

Verse Riff
==========
    s s e   e   e   e    q+e         s s e   e   e   e   q+e   
G-|---------------------10-b-r-----|----------------------------------|
D-|---------12--10--12-------------|---------7---5-h-7-p-5------------|
A-|-5-5-5--------------------------|-8-8-8----------------------------|
E-|--------------------------------|----------------------------------|

Pre Chorus Riff
===============
    e    s  s  e    s  s  e    s  s  e     e    
G-|-12---12-12-12---12-12-12---12-12-12----12--|
D-|--------------------------------------------|
A-|--------------------------------------------|
E-|--------------------------------------------|
[ Tab from: http://www.guitartabs.cc/tabs/n/new_model_army/vengeance_btab_ver_2.html ]
Chorus Riff
===========
    q       e   e   e   e   e   e    q+e         q        e   e   e  [x2]
G-||--------------------------------|---------------------------------||
D-||--------------------------------|---------------------------------||
A-||-5-------5---5---5---5---5---5--|-2-----------2--------2---2---0--||
E-||--------------------------------|---------------------------------||

    q       e   e   e   e   e   e    e   e   e   q        e   q  
G-|--------------------------------|---------------------------------|
D-|--------------------------------|-3---3---3---3--------3---3------|
A-|-5-------5---5---5---5---5---5--|---------------------------------|
E-|--------------------------------|---------------------------------|
 
    e   e   e   q       e   q        e   e   e   q        e   q  
G-|--------------------------------|---------------------------------|
D-|-7---7---7---7-------7---7------|-10--10--10--10-------10--10-----|
A-|--------------------------------|---------------------------------|
E-|--------------------------------|---------------------------------|

Bridge Riff
===========
    e   s s e   s s e   e   e   e    e   s s e   s s e   e   e   e     
G-|--------------------------------|--------------------------------|
D-|--------------------------------|--------------------------------|
A-|-5---5-5-5---5-5-5---7---7---7--|-8---8-8-8---8-8-8---7---7---7--|
E-|--------------------------------|--------------------------------|

    e   s s e   s s e   s s e   e    q      e   q       e   e   e     
G-|--------------------------------|--------------------------------|
D-|--------------------------------|--------------------------------|
A-|-8---8-8-8---8-8-8---8-8-8---8--|-8------7---8-------7---5---0---|
E-|--------------------------------|--------------------------------|




Comments