New Kind Of Normal - All Lies Chords & Tabs

 

All Lies Chords & Tabs

New Kind Of Normal Chords & Tabs

Version: 1 Type: Tab 0 ratings
1 star 2 stars 3 stars 4 stars 5 stars
comments

All Lies Tab

   
#----------------------------------PLEASE NOTE---------------------------------#
#This file is the author's own work and represents their interpretation of the #
#song. You may only use this file for private study, scholarship, or research. #
#------------------------------------------------------------------------------##

SONG: All Lies
ARTIST:New Kind Of Normal
ALBUM:Demo Album (free on website)
WEBSITE: www.newkindofnormal.co.za

TYPE: Guitar Tablature
TABBED BY: Sseug
EMAIL:
COMMENTS: Standard Tuning
         b-bend
         f-Finger tap
         p-pull offs
         h-hammer
         x-demp
         d-pinch harmonic
         G-ghost harmonic
         S-slide     

Intro/verse

e:-------------------------------------------------------------------------------
b:-------------------------------------------------------------------------------
g:------------9-7----------------------------------REPEAT x 5--------------------
d:-----7----------9-10-------7------9-10-9---------------------------------------
a:---8---8-----------------8---8-------------------------------------------------
e:-0--------0------------0--------0----------------------------------------------

chorus
e:-------------------------------------------------------------------------------
b:-------------------------------------------------------------------------------
g:--------------------------------------------------------REPEAT x 2-------------
d:-------------------------------------------------------------------------------
a:-3-3-s-7-6-6-6-3-3-s-7-6-6-6-3-3-s-7-6-6-7p-5p---------------------------------
e:-1-1-s-5-4-4-4-1-1-s-5-4-4-4-1-1-s-5-4-4-------5p-7p---------------------------

verse
e:-------------------------------------------------------------------------------
b:-------------------------------------------------------------------------------
g:-------------------------------------------------------------------------------
d:-------------------------------------------------------------------------------
a:-x3x3x3x3x3x3x3x3x3x3x3x3x3x3x3-3-7-x7x7x7x7x7x7x7x7x7x7x7x7x7x7-7-3---------
e:-x1x1x1x1x1x1x1x1x1x1x1x1x1x1x1-1-5-x5x5x5x5x5x5x5x5x5x5x5x5x5x5-5-1---------


e:-------------------------------------------------------------------------------
b:-------------------------------------------------------------------------------
g:----------------------------------------------------------------Repeat x2------
d:-------------------------------------------------------------------------------
a:-x3x3x3x3x3x3x3x3x3x3x3x3x3x3x3-3-7-x7x7x7x7x7x7-9x9x9-10x10-12----------------
e:-x1x1x1x1x1x1x1x1x1x1x1x1x1x1x1-1-5-x5x5x5x5x5x5-7x7x7-8x8---10----------------


Repeat chorus.
Repeat Intro
Play with intro
e:-------------------------------------------------------------------------------
b:-------------------------------------------------------------------------------
g:-------------------------------------------------------------------------------
d:-------------------------------------------------------------------------------
a:-7-7-7-7-7-7-7-7-7-7-7-7-7-7-7-7-7-7-7-7-7-7-7-7-7-7---------------------------
e:-------------------------------------------------------------------------------

repeat verse x2. First time with clean Intro

Solo

[ Tab from: http://www.guitartabs.cc/tabs/n/new_kind_of_normal/all_lies_tab.html ]
e:-------------------------------------------------------------------------------
b:-------------------------------------------------------------------------------
g:-------------------------------------------------------------------------9-7---
d:-----------------------------------7-9-10-12-10-9-7h9-5-7s10-9-7-12-10-9-------
a:-8—-8-10-12--12-10-7g19--5-7h8-7-5---------------------------------------------
e:-------------------------------------------------------------------------------


e:----------------------------------------------------12-------13------12-10-8---
b:-------------------------------------------10d---x10------x10-----x10----------
g:---------------10-9-7-9-10-12-10d9d7d9d10d-----x9-------x9------x9-------------
d:-9h10-9-7-9-10-----------------------------------------------------------------
a:-------------------------------------------------------------------------------
e:-------------------------------------------------------------------------------


e:----8--------------12s13-12s15-13----12-15p14p12-15p14p12-15p14p12-15p14p12----
b:-12---9---------10----------------15-------------------------------------------
g:--------------9----------------------------------------------------------------
d:-----------10------------------------------------------------------------------
a:--------12---------------------------------------------------------------------
e:-------------------------------------------------------------------------------


e:-15p14p12-15p14p12-15p14p12-15p14p12-17p14p12-17p14p12-17p14p12-17p14p12------
b:-------------------------------------------------------------------------------
g:-------------------------------------------------------------------------------
d:-------------------------------------------------------------------------------
a:-------------------------------------------------------------------------------
e:-------------------------------------------------------------------------------


e:-17p14p12-17p14p12-17p14p12-17p14p12-19f17p14p12-f19p17p14p12-19f17p14p12------
b:-------------------------------------------------------------------------------
g:-------------------------------------------------------------------------------
d:-------------------------------------------------------------------------------
a:-------------------------------------------------------------------------------
e:-------------------------------------------------------------------------------


e:-f19p17p14p12-f19p17p14p12-f19p17p14p12-f19p17p14p12-12b12b12b12b--------------
b:-----------------------------------------------------15b15b15b15b—15b-15-12----
g:-------------------------------------------------------------------------------
d:-------------------------------------------------------------------------------
a:-------------------------------------------------------------------------------
e:-------------------------------------------------------------------------------


e:-13----------------------------------------------------------------------------
b:---12-------------------------12s17-15-----------------------------------------
g:-----14-----------------------------------16s----------------------------------
d:-------15-14-12-14-15-14-9-12--------------------------------------------------
a:---------------------------------------12--------------------------------------
e:-------------------------------------------------------------------------------


Repeat chorus without first sliding part

Break
e:-------------------------------------------------------------------------------
b:-------------------------------------------------------------------------------
g:-------------------------------------------------Repeat x 2--------------------
d:-2-2-2---2-2--2-2-2---7-2-2-2---2-2--2-2-2-------------------------------------
a:-2-2-2---2-2--2-2-2---5-2-2-2---2-2--2-2-2-3-----------------------------------
e:-0-0-0---0-0—-0-0-0-----0-0-0---0-0--0-0-0-1-----------------------------------


Repeat verse (distortion) with clean intro.

---------------------------
Comments