New Jerusalem - Nice Melody Music Chords & Tabs

 

Nice Melody Music Chords & Tabs

New Jerusalem Chords & Tabs

Version: 2 Type: Tab 0 ratings
1 star 2 stars 3 stars 4 stars 5 stars
comments

Nice Melody Music Tab

   
Song: Fingering progression from Eli Eli: New Jerusalem
tabs by : Alex Nagornay

( / )  slide to
( R )  rest half a second or so.
( |: ) start repeat
( :| ) repeat
[ Tab from: http://www.guitartabs.cc/tabs/n/new_jerusalem/nice_melody_music_tab_ver_2.html ]
   F#/ E    Am            E         F#   Am
 e ---------------------------------------------------------|
 B --0-/-0----1------0h1--------------0--1-----0h1----------|
 G --2-/-1----2----2-----2-1----1-/-2-----2---2-----2-------|
 D ---------------2-----------R-------------2---------------|
 A --3-/-3----0------------2----2-/-3-0--0------------------|
 E ---------------------------------------------------------|
    G         C         Dm          Am             E
 e ---------3-0------0--1--1-1---1--0----5-----------0------|
 B -----3-------1---1----3-----3------1----1---0h1-0--0-----|
 G ---0---0-------0-------2------------------2-----1---1----|
 D ---------------------0----0------2------2------------2-R-|
 A -2---------3------------------------------------2--------|
 E ---------------------------------------------------------|
        E
 e -|------0------------------------------------------------|
 B -|---0----------0-1-----0h1---1---0h1--------0-----------|
 G -|-.--1---1-2---------2-----2---2----2-1---2-------------|
 D -|-.----------2-----2--------------------2-------2--R----|
 A -|---2------2-----0-----------0--------2-----------------|
 E -|-----------------------------------------------0-------|
    E                  Am  Dm     G       C          Dm
 e ----------------------------0----------0-------0--1---1--|
 B -------------0--0-1-0h1-3------3---1h3---1---1-----3-----|
 G ---2----2-2---2-----------2------0---------0--------2----|
 D -2---R-2---2------------0-------------------------0------|
 A ------------------0------------2-------3-----------------|
 E -0-----------0-------------------------------------------|
          Am            C            second time
 e -1---1-0---5-----------0--------|--0---------------------|
 B ---3-----1---1---0h1-0--0-------|--1---------------------|
 G ---------------2-----1---1----.-|--2---------------------|
 D -0-----2-----2------------2-R-.-|--2---------------------|
 A ---------------------2----------|------------------------|
 E --------------------------------|------------------------|
Comments