New Found Glory - Your Biggest Mistake Chords & Tabs

 

Your Biggest Mistake Chords & Tabs

New Found Glory Chords & Tabs

Version: 2 Type: Tab 0 ratings
1 star 2 stars 3 stars 4 stars 5 stars
comments

Your Biggest Mistake Tab

   
Tabbed by:GuitarMaster41
E-Mail: LukeMaster41@aol.com

Artist:New Found Glory
Album:Catalyst
Song:Your Biggest Mistake

Tuning:DADGBE

/ = SLIDE UP
\ = SLIDE DOWN
b = BEND
h = HAMMER ON
p = PULL OFF
. = PALM MUTE
+ = HARMONIC

Q = 164

--------------------
Intro:
--------------------

Guitar 1 (With flanger added.)
E|-------------|-------------|-------------|----------------------|
B|-------------|-------------|-------------|----------------------|
G|-------------|-------------|-----------2-|----------------------|
D|-------------|-------------|-----4-------|----------------------|
A|-------------|-4-0-------4-|-------4-4---|-3----------4---------|
D|-0-0-0-0-0-0-|-----5-0-0---|-0-0---------|-3--2.6--5-----3--2.6-|
   . . . . . .                               +   +   +  +  +   +

Guitar 2
E|----------------------------------------------------------------|
B|----------------------------------------------------------------|
G|----------------------------------------------------------------|
D|----------------------------------------------------------------|
A|----------------------------------------------------------------|
D|----------------------------------------------------------------|

Guitar 1
E|-------------|-----------|
B|-------------|-----------|
G|-----------2-|-----------|
D|-----4-------|-----------|
A|-------4-4---|-3---------|
D|-0-0---------|-3--2.6--5-|
                 +   +   +
Guitar 2
E|------------------------|-----|
B|------------------------|-----|
G|------------------------|-----|
D|------------------------|-----|
A|------------------------|-----|
D|------------------------|-0-0-|
                            . .
Guitar 1
E|------------|----------|------------|------------|
B|------------|----------|------------|------------|
G|------------|-6--x-2-2-|------------|-6--x-2-2-0-|
D|-2--x-6-6-x-|-6--x-2-2-|-2--x-6-6-x-|-6--x-2-2-0-|
A|-2--x-6-6-x-|-4--x-0-0-|-2--x-6-6-x-|-4--x-0-0-0-|
D|-2--x-6-6-x-|----------|-2--x-6-6-x-|----------0-|

Guitar 2
E|----------------------|----------|----------------------|-----------|
B|----------------------|----------|----------------------|-----------|
G|-13/14--12--13/14--12-|-11--9--9-|-13/14--12--13/14--12-|-11--13--9-|
D|--x------x---x------x-|--x--x--x-|--x------x---x------x-|--x---x--x-|
A|-11/12--10--11/12--10-|--9--7--7-|-11/12--10--11/12--10-|--9--11--7-|
D|----------------------|----------|----------------------|-----------|

Guitar 1
E|------------|------------|------------|----------|
B|------------|------------|------------|----------|
G|------------|-6--x-2-2-0-|------------|-6--x-2-2-|
D|-2--x-6-6-x-|-6--x-2-2-0-|-2--x-6-6-x-|-6--x-2-2-|
A|-2--x-6-6-x-|-4--x-0-0-0-|-2--x-6-6-x-|-4--x-0-0-|
D|-2--x-6-6-x-|----------0-|-2--x-6-6-x-|----------|

Guitar 2
E|--------------|----------|--------------|-----------|
B|--------------|----------|--------------|-----------|
G|-13/14--13/14-|-11--9--9-|-13/14--13/14-|-11--13--9-|
D|--x------x----|--x--x--x-|--x------x----|--x---x--x-|
A|-11/12--11/12-|--9--7--7-|-11/12--11/12-|--9--11--7-|
D|--------------|----------|--------------|-----------|

Guitar 1
E|-------------|-------------|-------------|-------------|
B|-------------|-------------|-------------|-------------|
G|-----1---1---|-----1---1---|-----1---1---|-----1---1---|
D|---2---2---2-|---2---2---2-|---2---2---2-|---2---2---2-|
A|-2-----------|-0-----------|-2-----------|-0-----------|
D|-------------|-------------|-------------|-------------|

Guitar 2
E|-------------|-------------|-------------|-------------|
B|-------------|-------------|-------------|-------------|
G|-9\----------|-------------|-------------|-------------|
D|-x-----------|-------------|-------------|-------------|
A|-7\----------|---------0---|-2-----------|-------------|
D|-------------|---------0---|-2-----------|-------------|
                         .     .
Guitar 3
E|-------------|-------------|-------------|-------------|
B|-------------|-------------|-------------|-------------|
G|-------------|-------------|-------------|-------------|
D|-------------|-------------|-------------|-------------|
A|-7-7-7-7-7-7-|-7-7-7-7-7-7-|-7-7-7-7-7-7-|-7-7-7-7-7-7-|
D|-------------|-------------|-------------|-------------|
   + + + + + +   + + + + + +   + + + + + +   + + + + + +


--------------------
Verse:
--------------------

Guitars 1 & 2
E|-----------------|-----------------|-----------------|-----------------|
B|-----------------|-----------------|-----------------|-----------------|
G|-----------------|-----------------|-----------------|-2--2-2-2--2-2-0-|
D|-2-----------2-0-|-6-----------6-0-|-7-----------7-0-|-2--2-2-2--2-2-0-|
A|-2-----------2-0-|-4--4-4-4-4--4-0-|-5--5-5-5-5--5-0-|-0--0-0-0--0-0-0-|
D|-2--2-2-2-2--2-0-|-----------------|-----------------|---------------0-|
      . . . .           . . . .           . . . .

Guitars 1 & 2
E|-----------------|-----------------|-----------------|-----------------|
B|-----------------|-----------------|-----------------|-----------------|
G|-----------------|-----------------|-----------------|-2-2-2-2-2-2-2-0-|
D|-2-----------2-0-|-6-----------6-0-|-7-----------7-0-|-2-2-2-2-2-2-2-0-|
A|-2-----------2-0-|-4--4-4-4-4--4-0-|-5--5-5-5-5--5-0-|-0-0-0-0-0-0-0-0-|
D|-2--2-2-2-2--2-0-|-----------------|-----------------|---------------0-|
      . . . .           . . . .           . . . .

Guitars 1 & 2
E|---------------|---------------|---------------|-----------------|
B|---------------|---------------|---------------|-----------------|
G|---------------|-6--6-6--6-6-6-|-7--7-7--7-7-7-|-2-2-2-2-2-2-2-0-|
D|-2--2-2--2-2-2-|-6--6-6--6-6-6-|-7--7-7--7-7-7-|-2-2-2-2-2-2-2-0-|
A|-2--2-2--2-2-2-|-4--4-4--4-4-4-|-5--5-5--5-5-5-|-0-0-0-0-0-0-0-0-|
D|-2--2-2--2-2-2-|---------------|---------------|---------------0-|

Guitars 1 & 2
E|---------------|---------------|---------------|-----------------|
B|---------------|---------------|---------------|-----------------|
G|---------------|-6--6-6--6-6-6-|-7--7-7--7-7-7-|-2-2-2-2-2-2-2-0-|
D|-2--2-2--2-2-2-|-6--6-6--6-6-6-|-7--7-7--7-7-7-|-2-2-2-2-2-2-2-0-|
A|-2--2-2--2-2-2-|-4--4-4--4-4-4-|-5--5-5--5-5-5-|-0-0-0-0-0-0-0-0-|
D|-2--2-2--2-2-2-|---------------|---------------|---------------0-|


--------------------
Chorus:
--------------------

Guitar 1
E|------------|------------|------------|-----------|
B|------------|------------|------------|-----------|
G|------------|-6--x-2-2-0-|------------|-6--9--9-0-|
D|-2--x-6-6-x-|-6--x-2-2-0-|-2--x-6-6-x-|-6--9--9-0-|
A|-2--x-6-6-x-|-4--x-0-0-0-|-2--x-6-6-x-|-4--7--7-0-|
D|-2--x-6-6-x-|----------0-|-2--x-6-6-x-|---------0-|

Guitar 2
E|------------|------------|------------|-----------|
B|------------|------------|------------|-----------|
G|------------|------------|------------|----6------|
D|------------|------------|------------|-7-----9---|
A|------------|------------|------------|-----------|
D|------------|------------|------------|-----------|

Guitar 3
E|------------|------------|------------|-----------|
B|------------|------------|------------|-----------|
G|------------|------------|------------|-----------|
D|------------|------------|------------|-7--9--9---|
A|------------|------------|------------|-----------|
D|------------|------------|------------|-----------|

Guitar 1
E|------------|------------|------------|-----------|
B|------------|------------|------------|-----------|
G|------------|-6--x-2-2-0-|------------|---------0-|
D|-2--x-6-6-x-|-6--x-2-2-0-|-4--x-6-6-6-|-7--9--9-0-|
A|-2--x-6-6-x-|-4--x-0-0-0-|-4--x-6-6-6-|-7--9--9-0-|
D|-2--x-6-6-x-|----------0-|-4--x-6-6-6-|-7--9--9-0-|

Guitar 2
E|------------|------------|------------|-----------|
B|------------|------------|------------|-----------|
G|------------|------------|------------|-----------|
D|-9----------|------------|------------|-----------|
A|------------|------------|------------|-----------|
D|------------|------------|------------|-----------|

Guitar 3
E|------------|------------|------------|-----------|
B|------------|------------|------------|-----------|
G|------------|------------|------------|-----------|
D|------------|------------|------------|-----------|
A|-7----------|------------|------------|-----------|
D|------------|------------|------------|-----------|

Guitar 1
E|------------|------------|------------|-----------|
B|------------|------------|------------|-----------|
G|------------|-6--x-2-2-0-|------------|-6--9--9-0-|
D|-2--x-6-6-x-|-6--x-2-2-0-|-2--x-6-6-x-|-6--9--9-0-|
A|-2--x-6-6-x-|-4--x-0-0-0-|-2--x-6-6-x-|-4--7--7-0-|
D|-2--x-6-6-x-|----------0-|-2--x-6-6-x-|---------0-|

Guitar 2
E|------------|------------|------------|-----------|
B|------------|------------|------------|-----------|
G|------------|------------|------------|----6------|
D|------------|------------|------------|-7-----9---|
A|------------|------------|------------|-----------|
D|------------|------------|------------|-----------|

Guitar 3
E|------------|------------|------------|-----------|
B|------------|------------|------------|-----------|
G|------------|------------|------------|-----------|
D|------------|------------|------------|-7--9--9---|
A|------------|------------|------------|-----------|
D|------------|------------|------------|-----------|

Guitar 1
E|------------|------------|------------|-----------|
B|------------|------------|------------|-----------|
G|------------|-6--x-2-2-0-|------------|---------0-|
D|-2--x-6-6-x-|-6--x-2-2-0-|-4--x-6-6-6-|-7--9--9-0-|
A|-2--x-6-6-x-|-4--x-0-0-0-|-4--x-6-6-6-|-7--9--9-0-|
D|-2--x-6-6-x-|----------0-|-4--x-6-6-6-|-7--9--9-0-|

Guitar 2
E|------------|------------|------------|-----------|
B|------------|------------|------------|-----------|
G|------------|------------|------------|-----------|
D|-9----------|------------|------------|-----------|
A|------------|------------|------------|-----------|
D|------------|------------|------------|-----------|

Guitar 3
E|------------|------------|------------|-----------|
B|------------|------------|------------|-----------|
G|------------|------------|------------|-----------|
D|------------|------------|------------|-----------|
A|-7----------|------------|------------|-----------|
D|------------|------------|------------|-----------|


--------------------
Verse:
--------------------

Guitars 1 & 2
E|------------|------------|-----------|-----------------|
B|------------|------------|-----------|-----------------|
G|------------|------------|-----------|-2-2-2-2-2-2-2-0-|
D|-2----------|-(2)--------|-(2)-------|-2-2-2-2-2-2-2-0-|
A|-2----------|-(2)--------|-(2)-------|-0-0-0-0-0-0-0-0-|
D|-2----------|-(2)--------|-(2)-------|---------------0-|

Guitars 1 & 2
E|-----------------|-----------------|-----------------|-----------------|
B|-----------------|-----------------|-----------------|-----------------|
G|-----------------|-----------------|-----------------|-2-2-2-2-2-2-2-0-|
D|-2-----------2-0-|-6-----------6-0-|-7-----------7-0-|-2-2-2-2-2-2-2-0-|
A|-2-----------2-0-|-4--4-4-4-4--4-0-|-5--5-5-5-5--5-0-|-0-0-0-0-0-0-0-0-|
D|-2--2-2-2-2--2-0-|-----------------|-----------------|---------------0-|
      . . . .           . . . .           . . . .

Guitars 1 & 2
E|---------------|---------------|---------------|-----------------|
B|---------------|---------------|---------------|-----------------|
G|---------------|-6--6-6--6-6-6-|-7--7-7--7-7-7-|-2-2-2-2-2-2-2-0-|
D|-2--2-2--2-2-2-|-6--6-6--6-6-6-|-7--7-7--7-7-7-|-2-2-2-2-2-2-2-0-|
A|-2--2-2--2-2-2-|-4--4-4--4-4-4-|-5--5-5--5-5-5-|-0-0-0-0-0-0-0-0-|
D|-2--2-2--2-2-2-|---------------|---------------|---------------0-|
[ Tab from: http://www.guitartabs.cc/tabs/n/new_found_glory/your_biggest_mistake_tab_ver_2.html ]
Guitars 1 & 2
E|---------------|---------------|---------------|-----------------|
B|---------------|---------------|---------------|-----------------|
G|---------------|-6--6-6--6-6-6-|-7--7-7--7-7-7-|-2-2-2-2-2-2-2-0-|
D|-2--2-2--2-2-2-|-6--6-6--6-6-6-|-7--7-7--7-7-7-|-2-2-2-2-2-2-2-0-|
A|-2--2-2--2-2-2-|-4--4-4--4-4-4-|-5--5-5--5-5-5-|-0-0-0-0-0-0-0-0-|
D|-2--2-2--2-2-2-|---------------|---------------|---------------0-|


--------------------
Chorus:
--------------------

Guitar 1
E|------------|------------|------------|-----------|
B|------------|------------|------------|-----------|
G|------------|-6--x-2-2-0-|------------|-6--9--9-0-|
D|-2--x-6-6-x-|-6--x-2-2-0-|-2--x-6-6-x-|-6--9--9-0-|
A|-2--x-6-6-x-|-4--x-0-0-0-|-2--x-6-6-x-|-4--7--7-0-|
D|-2--x-6-6-x-|----------0-|-2--x-6-6-x-|---------0-|

Guitar 2
E|------------|------------|------------|-----------|
B|------------|------------|------------|-----------|
G|------------|------------|------------|----6------|
D|------------|------------|------------|-7-----9---|
A|------------|------------|------------|-----------|
D|------------|------------|------------|-----------|

Guitar 3
E|------------|------------|------------|-----------|
B|------------|------------|------------|-----------|
G|------------|------------|------------|-----------|
D|------------|------------|------------|-7--9--9---|
A|------------|------------|------------|-----------|
D|------------|------------|------------|-----------|

Guitar 1
E|------------|------------|------------|-----------|
B|------------|------------|------------|-----------|
G|------------|-6--x-2-2-0-|------------|---------0-|
D|-2--x-6-6-x-|-6--x-2-2-0-|-4--x-6-6-6-|-7--9--9-0-|
A|-2--x-6-6-x-|-4--x-0-0-0-|-4--x-6-6-6-|-7--9--9-0-|
D|-2--x-6-6-x-|----------0-|-4--x-6-6-6-|-7--9--9-0-|

Guitar 2
E|------------|------------|------------|-----------|
B|------------|------------|------------|-----------|
G|------------|------------|------------|-----------|
D|-9----------|------------|------------|-----------|
A|------------|------------|------------|-----------|
D|------------|------------|------------|-----------|

Guitar 3
E|------------|------------|------------|-----------|
B|------------|------------|------------|-----------|
G|------------|------------|------------|-----------|
D|------------|------------|------------|-----------|
A|-7----------|------------|------------|-----------|
D|------------|------------|------------|-----------|

Guitar 1
E|------------|------------|------------|-----------|
B|------------|------------|------------|-----------|
G|------------|-6--x-2-2-0-|------------|-6--9--9-0-|
D|-2--x-6-6-x-|-6--x-2-2-0-|-2--x-6-6-x-|-6--9--9-0-|
A|-2--x-6-6-x-|-4--x-0-0-0-|-2--x-6-6-x-|-4--7--7-0-|
D|-2--x-6-6-x-|----------0-|-2--x-6-6-x-|---------0-|

Guitar 2
E|------------|------------|------------|-----------|
B|------------|------------|------------|-----------|
G|------------|------------|------------|----6------|
D|------------|------------|------------|-7-----9---|
A|------------|------------|------------|-----------|
D|------------|------------|------------|-----------|

Guitar 3
E|------------|------------|------------|-----------|
B|------------|------------|------------|-----------|
G|------------|------------|------------|-----------|
D|------------|------------|------------|-7--9--9---|
A|------------|------------|------------|-----------|
D|------------|------------|------------|-----------|

Guitar 1
E|------------|------------|------------|-----------|
B|------------|------------|------------|-----------|
G|------------|-6--x-2-2-0-|------------|---------0-|
D|-2--x-6-6-x-|-6--x-2-2-0-|-4--x-6-6-6-|-7--9--9-0-|
A|-2--x-6-6-x-|-4--x-0-0-0-|-4--x-6-6-6-|-7--9--9-0-|
D|-2--x-6-6-x-|----------0-|-4--x-6-6-6-|-7--9--9-0-|

Guitar 2
E|------------|------------|------------|-----------|
B|------------|------------|------------|-----------|
G|------------|------------|------------|-----------|
D|-9----------|------------|------------|-----------|
A|------------|------------|------------|-----------|
D|------------|------------|------------|-----------|

Guitar 3
E|------------|------------|------------|-----------|
B|------------|------------|------------|-----------|
G|------------|------------|------------|-----------|
D|------------|------------|------------|-----------|
A|-7----------|------------|------------|-----------|
D|------------|------------|------------|-----------|

Guitar 1
E|----------------|-----------------|-------------------------|
B|----------------|-------------0---|-------------------------|
G|----------------|-------------0---|-------------------------|
D|-2--------------|-------------0---|-------------------------|
A|-2--------------|-------------0---|-------------------------|
D|-2--2-2-2-2-2-2-|-----------------|-------------x\----------|
      . . . . . .                            (Pickslide!)

Guitar 2
E|----------------|-----------------|-------------------------|
B|----------------|-----------------|-------------------------|
G|----------------|-----------------|-------------------------|
D|-2--------------|-----------------|-------------------------|
A|-2--------------|-2-2-2-2-2-2-2-2-|-2b-2b-2b-2b-2b-2b-2b-2b-|
D|-2--2-2-2-2-2-2-|-----------------|-------------------------|
      . . . . . .


--------------------
Interlude:
--------------------

Guitar 1
E|----------------|----------------|----------------|----------------|
B|----------------|-2-2-2----------|----------------|-2-2-2----------|
G|-4-4-4-2--2-2-2-|-2-2-2-2--2-2-2-|-4-4-4-2--2-2-2-|-2-2-2-2--2-2-2-|
D|-2-2-2-0--0-0-0-|-2-2-2-0--0-0-0-|-2-2-2-0--0-0-0-|-2-2-2-0--0-0-0-|
A|-2-2-2-0--0-0-0-|-0-0-0-0--0-0-0-|-2-2-2-0--0-0-0-|-0-0-0-0--0-0-0-|
D|-2-2-2-0--0-0-0-|-------0--0-0-0-|-2-2-2-0--0-0-0-|-------0--0-0-0-|

Guitar 2
E|----------------|----------------|----------------|----------------|
B|----------------|----------------|----------------|----------------|
G|----------------|---------4------|----------------|-4--------------|
D|-4-4-2-2------2-|---2-4/6---6-4b-|-0-0-4b---4-2-0-|---6-4-2--------|
A|----------4-2---|-2--------------|----------------|----------------|
D|----------------|----------------|----------------|----------------|

Guitar 3
E|-------------------|-------------------|------------------|------------|
B|-------------------|-------------------|------------------|-12-9-------|
G|-11-11-9-9-------9-|---9-11-9------11b-|-x-0-11b---11-9-x-|------11-9\-|
D|------------11-9---|-9--------11-9-----|------------------|------------|
A|-------------------|-------------------|------------------|------------|
D|-------------------|-------------------|------------------|------------|


--------------------
Bridge:
--------------------

Guitar 1
E|----------------|----------------|----------------|----------------|
B|----------------|-2-2-2----------|----------------|-2-2-2----------|
G|-4-4-4-2--2-2-2-|-2-2-2-2--2-2-2-|-4-4-4-2--2-2-2-|-2-2-2-2--2-2-2-|
D|-2-2-2-0--0-0-0-|-2-2-2-0--0-0-0-|-2-2-2-0--0-0-0-|-2-2-2-0--0-0-0-|
A|-2-2-2-0--0-0-0-|-0-0-0-0--0-0-0-|-2-2-2-0--0-0-0-|-0-0-0-0--0-0-0-|
D|-2-2-2-0--0-0-0-|-------0--0-0-0-|-2-2-2-0--0-0-0-|-------0--0-0-0-|

Guitar 2
E|-----------------|-----------------|-------------------------|-------------------------|
B|-----------------|-----------------|-------------------------|-------------------------|
G|-9-9-9-9-9-9-9-9-|-9-9-9-9-9-6-6-6-|-13-13-13-13-13-13-13-13-|-13-13-13-13-13-13-13-13-|
D|-x-x-x-x-x-x-x-x-|-x-x-x-x-x-x-x-x-|--x--x--x--x--x--x--x--x-|--x--x--x--x--x--x--x--x-|
A|-7-7-7-7-7-7-7-7-|-7-7-7-7-7-4-4-4-|-11-11-11-11-11-11-11-11-|-11-11-11-11-11-11-11-11-|
D|-----------------|-----------------|-------------------------|-------------------------|

Guitar 1
E|----------------|----------------|----------------|-----------------|-----------------|
B|----------------|-2-2-2----------|-2-2-2----------|-----------------|-----------------|
G|-4-4-4-2--2-2-2-|-2-2-2-2--2-2-2-|-2-2-2-2--2-2---|-4-4-4-4-4-4-4-4-|-4-4-4-4-4-4-4-0-|
D|-2-2-2-0--0-0-0-|-2-2-2-0--0-0-0-|-2-2-2-0--0-0-0-|-4-4-4-4-4-4-4-4-|-4-4-4-4-4-4-4-0-|
A|-2-2-2-0--0-0-0-|-0-0-0-0--0-0-0-|-0-0-0-0--0-0-0-|-2-2-2-2-2-2-2-2-|-2-2-2-2-2-2-2-0-|
D|-2-2-2-0--0-0-0-|-------0--0-0-0-|-------0--0-0-0-|-----------------|---------------0-|

Guitar 2
E|-----------------|-----------------|-------------------------|-------------------------|-------------------------|
B|-----------------|-----------------|-------------------------|-------------------------|-------------------------|
G|-9-9-9-9-9-9-9-9-|-9-9-9-9-9-6-6-6-|-13-13-13-13-13-13-13-13-|-16-16-16-16-16-16-16-16-|-16-16-16-16-16-16-16-16-|
D|-x-x-x-x-x-x-x-x-|-x-x-x-x-x-x-x-x-|--x--x--x--x--x--x--x--x-|--x--x--x--x--x--x--x--x-|--x--x--x--x--x--x--x--x-|
A|-7-7-7-7-7-7-7-7-|-7-7-7-7-7-4-4-4-|-11-11-11-11-11-11-11-11-|-14-14-14-14-14-14-14-14-|-14-14-14-14-14-14-14-14-|
D|-----------------|-----------------|-------------------------|-------------------------|-------------------------|

Guitar 1
E|-----------------|-----------------|-----------------|-----------------|
B|-----------------|-----------------|-----------------|-----------------|
G|-----------------|-----------------|-----------------|-----------------|
D|-2---------------|-----------------|-----------------|---0-0-----------|
A|-2---------------|-----------------|-----------------|-x-0-0-----------|
D|-2---------------|-----------------|-----------------|---0-0-----------|
                                                           . .
Guitar 2
E|-----------------|-----------------|-----------------|-----------------|
B|-----------------|-----------------|-----------------|-----------------|
G|-9---------------|-----------------|-----------------|-----0-----------|
D|-x---------------|-----------------|-----------------|---0-0-----------|
A|-7---------------|-----------------|-----------------|---0-0-----------|
D|-----------------|-----------------|-----------------|-----------------|
                                                           . .

--------------------
Chorus
--------------------


--------------------
Outro:
--------------------

Guitar 1
E|------------|------------|------------|-----------|
B|------------|------------|------------|-----------|
G|------------|-6--x-2-2-0-|------------|-6--9--9-0-|
D|-2--x-6-6-x-|-6--x-2-2-0-|-2--x-6-6-x-|-6--9--9-0-|
A|-2--x-6-6-x-|-4--x-0-0-0-|-2--x-6-6-x-|-4--7--7-0-|
D|-2--x-6-6-x-|----------0-|-2--x-6-6-x-|---------0-|

Guitar 2
E|--------------|----------|----------------------|-----------|
B|--------------|----------|----------------------|-----------|
G|-13/14--13/14-|-11--9--9-|-13/14--12--13/14--12-|-11--13--9-|
D|--x------x----|--x--x--x-|--x------x---x------x-|--x---x--x-|
A|-11/12--11/12-|--9--7--7-|-11/12--10--11/12--10-|--9--11--7-|
D|--------------|----------|----------------------|-----------|

Guitar 1
E|------------|------------|------------|-----------|
B|------------|------------|------------|-----------|
G|------------|-6--x-2-2-0-|------------|-6--9--9-0-|
D|-2--x-6-6-x-|-6--x-2-2-0-|-2--x-6-6-x-|-6--9--9-0-|
A|-2--x-6-6-x-|-4--x-0-0-0-|-2--x-6-6-x-|-4--7--7-0-|
D|-2--x-6-6-x-|----------0-|-2--x-6-6-x-|---------0-|

Guitar 2
E|--------------|------------|---------|-----------|
B|--------------|------------|---------|-----------|
G|-13/14--13/14-|-11--9-9--9-|-11----9-|-14----13\-|
D|--x------x----|--x--x-x--x-|--x----x-|--x-----x--|
A|-11/12--11/12-|--9--7-7--7-|--9----7-|-12----11\-|
D|--------------|------------|---------|-----------|

Guitar 1
E|-------------|-------------|-------------|-------------|---|
B|-------------|-------------|-------------|-------------|---|
G|-----1---1---|-----1---1---|-----1---1---|-----1---1---|---|
D|---2---2---2-|---2---2---2-|---2---2---2-|---2---2---2-|---|
A|-2-----------|-0-----------|-2-----------|-0-----------|-2-|
D|-------------|-------------|-------------|-------------|-2-|

Guitar 2
E|-------------|-------------|-------------|-------------|---|
B|-------------|-------------|-------------|-------------|---|
G|-------------|-------------|-------------|-------------|---|
D|-------------|-------------|-------------|-------------|---|
A|-------------|-------------|-------------|-------------|---|
D|-------------|-------------|-------------|-------------|---|
Comments