New Found Glory - Your Biggest Mistake Chords & Tabs

 

Your Biggest Mistake Chords & Tabs

New Found Glory Chords & Tabs

Version: 1 Type: Tab 0 ratings
1 star 2 stars 3 stars 4 stars 5 stars
comments

Your Biggest Mistake Tab

   
-------------------------------------------------------------------------------
			     YOUR BIGGEST MISTAKE - New Found Glory
-------------------------------------------------------------------------------
Tabbed by: Scooba_Steve
Email: srgregson@msn.com
Tuning: Standard E Tuning

** This is my first ever Tab, yay!  I think it sounds pretty close to the original.
I to match the picking as close as I could but its not perfect, so just listen to
the song you want to get the picking just right.  If you have any questions,
comments, or corrections then feel free to e-mail them to me! **

Intro:
e|--------------------------|--|---------------|--|------|
B|--------------------------|--|---------------|--|------|
G|-------------6------------|x4|--------------|x4|-------|
D|--2--6-6-6--6--7-7-7-----|--|------6--6----|--|--------|
A|--2--6-6-6--4--7-7-7-----|--|----6--6--6---|--|--------|
E|--0--4-4-4-----5-5-5-----|--|--4-----------|--|--------|  x1

Verse: ("What do you think inside your head...")
e|--------------------------------------------------------------|
B|--------------------------------------------------------------|
G|-----------------------------7-7-7-7-7-7----------------------|
D|--2-2-2-2-2-2--7-7-7-7-7-7--7-7-7-7-7-7--7-7--7-7--7-7--------|
A|--2-2-2-2-2-2--7-7-7-7-7-7--5-5-5-5-5-5--7-7--7-7--7-7--------|
E|--0-0-0-0-0-0--5-5-5-5-5-5----------------5-5--5-5--5-5-------|  x2
          *  *  *  *  *           *  *  *  *  *        *  *  *  *  *
Pre-Chorus: ("Your life is a time bomb about to explode...")
e|----------------------------------------------------------------|
B|----------------------------------------------------------------|
G|-------------------------------7-7-7--7-7-7---------------------|
D|--2-2-2--2-2-2--7-7-7--7-7-7--7-7-7--7-7-7--7-7-7--7-7-7--------|
A|--2-2-2--2-2-2--7-7-7--7-7-7--5-5-5--5-5-5--7-7-7--7-7-7--------|
E|--0-0-0--0-0-0--5-5-5--5-5-5-----------------5-5-5--5-5-5-------|  x2

Chorus: ("Everyones told you, over and over again...")
e|-------------------------|--|-------------------------|
B|-------------------------|--|-------------------------|
G|-------------6-----------|x3|-------------------------|
D|--2--6-6-6--6--7-7-7----|--|--4--6-6-6--7--9-9-9------|
A|--2--6-6-6--4--7-7-7----|--|--4--6-6-6--7--9-9-9------|
E|--0--4-4-4-----5-5-5----|--|--2--4-4-4--5--7-7-7------|  x2
[ Tab from: http://www.guitartabs.cc/tabs/n/new_found_glory/your_biggest_mistake_tab.html ]
Verse:  ("And I know that its hard for you to...")
e|-------------------------------------------------------------|
B|-------------------------------------------------------------|
G|-----------------------------7-7-7-7-7-7---------------------|
D|--2-2-2-2-2-2--7-7-7-7-7-7--7-7-7-7-7-7--7-7--7-7--7-7-------|
A|--2-2-2-2-2-2--7-7-7-7-7-7--5-5-5-5-5-5--7-7--7-7--7-7-------|
E|--0-0-0-0-0-0--5-5-5-5-5-5----------------5-5--5-5--5-5------|  x1
           *  *  *  *  *         *  *  *  *  *         *  *  *  *  *
Pre-Chorus:  ("The world you created is set to explode...")
e|----------------------------------------------------------------|
B|----------------------------------------------------------------|
G|-------------------------------7-7-7--7-7-7---------------------|
D|--2-2-2--2-2-2--7-7-7--7-7-7--7-7-7--7-7-7--7-7-7--7-7-7--------|
A|--2-2-2--2-2-2--7-7-7--7-7-7--5-5-5--5-5-5--7-7-7--7-7-7--------|
E|--0-0-0--0-0-0--5-5-5--5-5-5-----------------5-5-5--5-5-5-------|  x2

Chorus: ("Everyones told you, over and over again...")
e|-------------------------|--|---------------------------|
B|-------------------------|--|---------------------------|
G|-------------6-----------|x3|---------------------------|
D|--2--6-6-6--6--7-7-7----|--|--4--6-6-6--7--9-9-9--------|
A|--2--6-6-6--4--7-7-7----|--|--4--6-6-6--7--9-9-9--------|
E|--0--4-4-4-----5-5-5----|--|--2--4-4-4--5--7-7-7--------|  x2

Bridge: ("Its a chance, you should take...")
e|------------------------------------|
B|------------------------------------|
G|-----------------6-6-6--------------|
D|--6-6-6--4-4-4--6-6-6--4-4-4--------|
A|--6-6-6--4-4-4--4-4-4--4-4-4--------|
E|--4-4-4--2-2-2---------2-2-2--------|  x6

Bridge end: ("You should trust the ones that...")
e|---------------------------------|
B|---------------------------------|
G|--4-4--4-4--4-4--4-4--4-4--------|
D|--4-4--4-4--4-4--4-4--4-4--------|
A|--2-2--2-2--2-2--2-2--2-2--------|
E|---------------------------------|  x1

Chorus: ("Everyones told you, over and over again...")
e|-------------------------|--|-------------------------|
B|-------------------------|--|-------------------------|
G|-------------6-----------|x3|-------------------------|
D|--2--6-6-6--6--7-7-7----|--|--4--6-6-6--7--9-9-9------|
A|--2--6-6-6--4--7-7-7----|--|--4--6-6-6--7--9-9-9------|
E|--0--4-4-4-----5-5-5----|--|--2--4-4-4--5--7-7-7------|  x2

Outro: ("Of your life....")
e|----------------|
B|----------------|
G|----------------|
D|------6--6------|
A|----6--6--6-----|
E|--4-------------|  x4

And thats it!  I hope you like it, as I'm the first person to post tabs for this song!
----------------------------
| /  slide up
| \  slide down
| h  hammer-on
| p  pull-off
| ~  vibrato
| +  harmonic
| *  Mute note
=========================================================
Comments