New Found Glory - Who Am I Chords & Tabs

 

Who Am I Chords & Tabs

New Found Glory Chords & Tabs

Version: 2 Type: Tab 0 ratings
1 star 2 stars 3 stars 4 stars 5 stars
comments

Who Am I Tab

   
-------------------------------------------------------------------------------
			    Who Am I - New Found Glory
-------------------------------------------------------------------------------
Tabbed by: Tom Kyle
Email: Tombotownusa@hotmail.com
[ Tab from: http://www.guitartabs.cc/tabs/n/new_found_glory/who_am_i_tab_ver_2.html ]
Tuning: Standard
Intro 
e|---------------------------------------------------------------------------|
B|---------------------------------------------------------------------------|
G|--5-55555-55555-55------------------5-55555-55555-55-----------------------|
D|--x-xxxxx-xxxxx-xx-7-7777-5-5555-55-x-xxxxx-xxxxx-xx-2-2222-3-3333-33------|
A|--3-33333-33333-33-x-xxxx-x-xxxx-xx-3-33333-33333-33-x-xxxx-x-xxxx-xx------|
E|-------------------5-5555-3-3333-33------------------0-0000-1-1111-11------|
Verse 
e|---------------------------------------------------------------------------|
B|---------------------------------------------------------------------------|
G|--5-55555-55555-55------------------5-55555-55555-55-----------------------|
D|--5-55555-55555-55-7-7777-5-5555-55-5-55555-55555-55-2-2222-3-3333-33------|
A|--3-33333-33333-33-7-7777-5-5555-55-3-33333-33333-33-2-2222-3-3333-33------|
E|-------------------5-5555-3-3333-33------------------0-0000-1-1111-11------|
Pre-chorus
e|---------------------------------------------------------------------------|
B|---------------------------------------------------------------------------|
G|---------------------------5-----------------------------------------------|
D|--5--5--5-5--5--5-5--5--5--5-----------------------------------------------|
A|--5--5--5-5--5--5-5--5--5--3-----------------------------------------------|
E|--3--3--3-3--3--3-3--3--3--------------------------------------------------|
Chorus
e|---------------------------------------------------------------------------|
B|---------------------------------------------------------------------------|
G|--5-5-5-5-4-4-4-4----------------------------------------------------------|
D|--5-5-5-5-4-4-4-4-7-7-7-7-5-5-5-5-3-3-3-3-3-3-3-3-3-3-3-3-3-3-3-3----------|
A|--3-3-3-3-2-2-2-2-7-7-7-7-5-5-5-5-3-3-3-3-3-3-3-3-3-3-3-3-3-3-3-3----------|
E|------------------5-5-5-5-3-3-3-3-1-1-1-1-1-1-1-1-1-1-1-1-1-1-1-1----------|
Middle
e|-------------------------------------------------------------------------------|
B|-------------------------------------------------------------------------------|
G|------------------------------------------5------------------------------------|
D|--2----------------------3-3-3-3-3-3-3-x2-5----------------------3-3-3-3-3-3-3-|
A|--2----3-3-3-3-3-3-3-3-3-3-3-3-3-3-3-3----3----3-3-3-3-3-3-3-3-3-3-3-3-3-3-3-3-|
E|--0----1-1-1-1-1-1-1-1-1-1-1-1-1-1-1-1---------1-1-1-1-1-1-1-1-1-1-1-1-1-1-1-1-|
	 . . . . . . . . .                       . . . . . . . . . 
e|---------------------------------------------------------------------------|
B|---------------------------------------------------------------------------|
G|-------12-12-12-12-14-14-14-14-17-17-17-17-19-19-19-19---------------------|
D|--7-----x--x--x--x--x--x--x--x--x--x--x--x--x--x--x--x---------------------|
A|--7----10-10-10-10-12-12-12-12-15-15-15-15-17-17-17-17---------------------|
E|--5------------------------------------------------------------------------|
Solo
e|---------------------------20----------------------------------------------|
B|---------------------------------------------------------------------------|
G|--9-10-9----------12--10-9-----9--9-10-9------------9----------------------|
D|---------12-10-10------------------------12-10---10---10--10-10-12-10-10---|
A|-----------------------------------------------8---------------------------|
E|---------------------------------------------------------------------------|
							     .  .        .
e|-------------------------------------------------------12------------------|
B|----------------------------------------------------------13----15-13-12---|
G|--10-9----------12-10--9----12-12h14-12-10-9-----------------12------------|
D|-------10-12-10----------10------------------12-10-10----------------------|
A|---------------------------------------------------------------------------|
E|---------------------------------------------------------------------------|

e|---------------------------------------------------------------------------|
B|---------------------------------------------------------------------------|
G|--12---------10-9----------------------------------------------------------|
D|------------------10----10----7--------------------------------------------|
A|---------------------10----10----------------------------------------------|
E|---------------------------------------------------------------------------|
Not sure bout the last part of the chorus when jprdan starts singin agen but thats pretty damn close!! :-)

| /  slide up
| \  slide down
| h  hammer-on
| p  pull-off
| ~  vibrato
| +  harmonic
| x  Mute note
===============================================================================
Comments