New Found Glory - Who Am I Chords & Tabs

 

Who Am I Chords & Tabs

New Found Glory Chords & Tabs

Version: 1 Type: Tab 0 ratings
1 star 2 stars 3 stars 4 stars 5 stars
comments

Who Am I Tab

Bransden69@hotmail.com


-----------------------------------------------|
-----------------------------------------------|
-----5-------5-------5-------5-------5-------5-|
---5---5---5---5---5---5---5---5---5---5---5---|
-3-------2-------0-----------------------------|
-------------------------3-------1-------1-----|
[ Tab from: http://www.guitartabs.cc/tabs/n/new_found_glory/who_am_i_tab.html ]
------------------------------------------|
------------------------------------------|
-55555222------555559991010101010---------|
---------55555---------------------(x2)---|
-33333000------33333777-8-8-8-8-8---------|
---------33333----------------------------|

------------------------------------------|
------------------------------------------|
------------------------------------------|
-55555-222-------55555--------------------|
-33333-000-55555-33333-333-33333----------|
-----------33333-------000-11111----------|

-----------------------------------------------|
-----------------------------------------------|
-----5-------5-------5-------5-------5-------5-|
---5---5---5---5---5---5---5---5---5---5---5---|
-3-------2-------0-----------------------------|
-------------------------3-------1-------1-----|
Comments