New Found Glory - Vegas Chords & Tabs

 

Vegas Chords & Tabs

New Found Glory Chords & Tabs

Version: 1 Type: Bass Tab 0 ratings
1 star 2 stars 3 stars 4 stars 5 stars
comments

Vegas Bass Tab

Band: New Found Glory
Song: Vegas
Transcribed by: Duffman


Intro:   (Very hard)
-------------------------------------------------------------------------
-------------------------------------------------------------------------
-------------------------------------------------------------------------
--REST---0-0-----REST----------------------------------------------------
                                                                              
[ Tab from: http://www.guitartabs.cc/tabs/n/new_found_glory/vegas_btab.html ]
The next 2 lines are alternated back and forth throughout the verse:
-------------------------------------------------------------------------
-------------------------------------------------------------------------
-------------------------------------------4-4-4-------2-----------------
-0-0--0-4-4-5-0-0--0-4-4-5---0-0--0-4-4-5--------5-5-5-------------------
                                                                              

-------------------------------------------------------------------------
-------------------------------------------------------------------------
--------------------4-4-4------------------------------------------------
----0-0---0-0---0-0-------5-5-5------------------------------------------
                                                                              

Chorus  (Play 4 times)       On 4th time add:
---------------------------|---------------------------------------------
---------------------------|---------------------------------------------
---------------------------|---------------------------------------------
-0-0--5-4-4-5-2-2-4-5-5-4--|-0-0--00-------------------------------------
                                                                              

Send questions to duffman234@hotmail.com.
Comments