New Found Glory - Understatement Chords & Tabs

 

Understatement Chords & Tabs

New Found Glory Chords & Tabs

Version: 9 Type: Tab 0 ratings
1 star 2 stars 3 stars 4 stars 5 stars
comments

Understatement Tab

New Found Glory-Understatement
~~any questions bbond123@BELLSOUTH.NET. Dont Vote For NFG on TRL thats all 
we need a kick ass band going pop. Leave any questions or comments u need on 
the little thingy and rate the tab please
x=palm mute

INTRO

Distorted
E-|-------------------
B-|-------------------
G-|--1-x-1---x-x-x-x--
D-|--2-x-2---x-x-x-x--
A-|--2-x-2---x-x-x-x--
E-|--0-x-0---x-x-x-x--   X 4 


played with wierd effect

E-|---------------------------------
B-|---------------------------------
G-|--1-x-x-x-x-x-x-x-x-x-x-x-x-x-x--
D-|--2-x-x-x-x-x-x-x-x-x-x-x-x-x-x--
A-|--2-x-x-x-x-x-x-x-x-x-x-x-x-x-x--
E-|--0-x-x-x-x-x-x-x-x-x-x-x-x-x-x--


Verse 1 
Distorted
E-|----            
B-|----              
G-|--1-            
D-|--2-            
A-|--2-            
E-|--0- Palm muted 

E-|----
B-|----
G-|----
D-|--4-
A-|--4-
E-|--2-

E-|----
B-|----
G-|----
D-|--7-
A-|--7-
E-|--5-   Verse 1 x 4 

Pre-Chorus

E-|-----------------------------------------------------
B-|-----------------------------------------------------
G-|-----------------------------------------------------
D-|--11--11--11-11--9--9--9-9---7--7--7-7---9--9--9-9---
A-|--11--11--11-11--9--9--9-9---7--7--7-7---9--9--9-9---
E-|--9---9---9--9---7--7--7-7---5--5--5-5---7--7--7-7---

E-|--------------------------------------------------------
B-|--------------------------------------------------------
G-|--------------------------------------------------------
D-|--11--11--11-11--9--9--9-9---7--7--7-7---9--x-x-x-x-9---
A-|--11--11--11-11--9--9--9-9---7--7--7-7---9--x-x-x-x-9---
E-|--9---9---9--9---7--7--7-7---5--5--5-5---7--x-x-x-x-7---

E-|-----------------------------------------------------
B-|-----------------------------------------------------
G-|-----------------------------------------------------
D-|--11--11--11-11--9--9--9-9---7--7--7-7---9--9--9-9---
A-|--11--11--11-11--9--9--9-9---7--7--7-7---9--9--9-9---
E-|--9---9---9--9---7--7--7-7---5--5--5-5---7--7--7-7---

E-|------------------------------------------------
B-|------------------------------------------------
G-|------------------------------------------------
D-|--11--11--11-11--9--9--9-9---7-----------9---9--
A-|--11--11--11-11--9--9--9-9---7-----------9---9--
E-|--9---9---9--9---7--7--7-7---5-----------7---7--

Chorus
Distorted
E-|----------------------------------------
B-|----------------------------------------
G-|--1---1---------------------------------
D-|--2---2----4--4--4----7---7----9--9--9--
A-|--2---2----4--4--4----7---7----9--9--9--
E-|--0---0----2--2--2----5---5----7--7--7--  X3

E-|-----------------------------------
B-|-----------------------------------
G-|-----------------------------------
D-|--11----------7---x---7----9--9----
A-|--11----------7---x---7----9--9----
E-|--9-----------5---x---5----7--7----

Verse 2
 
Played with weird effect
E-|---------------------------------
B-|---------------------------------
G-|--1-x-x-x-x-x-x-x-x-x-x-x-x-x-x--
D-|--2-x-x-x-x-x-x-x-x-x-x-x-x-x-x--
A-|--2-x-x-x-x-x-x-x-x-x-x-x-x-x-x--
E-|--0-x-x-x-x-x-x-x-x-x-x-x-x-x-x--

Distorted
E-|----            
B-|----              
G-|--1-            
D-|--2-            
A-|--2-            
E-|--0- Palm muted 

E-|----
B-|----
G-|----
D-|--4-
A-|--4-
E-|--2-

E-|----
B-|----
G-|----
D-|--7-
A-|--7-
E-|--5-   Verse 2 x 2  (optional pick slide)

Pre-Chorus
[ Tab from: http://www.guitartabs.cc/tabs/n/new_found_glory/understatement_tab_ver_9.html ]
Distorted
E-|-----------------------------------------------------
B-|-----------------------------------------------------
G-|-----------------------------------------------------
D-|--11--11--11-11--9--9--9-9---7--7--7-7---9--9--9-9---
A-|--11--11--11-11--9--9--9-9---7--7--7-7---9--9--9-9---
E-|--9---9---9--9---7--7--7-7---5--5--5-5---7--7--7-7---

E-|--------------------------------------------------------
B-|--------------------------------------------------------
G-|--------------------------------------------------------
D-|--11--11--11-11--9--9--9-9---7--7--7-7---9--x-x-x-x-9---
A-|--11--11--11-11--9--9--9-9---7--7--7-7---9--x-x-x-x-9---
E-|--9---9---9--9---7--7--7-7---5--5--5-5---7--x-x-x-x-7---

E-|-----------------------------------------------------
B-|-----------------------------------------------------
G-|-----------------------------------------------------
D-|--11--11--11-11--9--9--9-9---7--7--7-7---9--9--9-9---
A-|--11--11--11-11--9--9--9-9---7--7--7-7---9--9--9-9---
E-|--9---9---9--9---7--7--7-7---5--5--5-5---7--7--7-7---

E-|------------------------------------------------
B-|------------------------------------------------
G-|------------------------------------------------
D-|--11--11--11-11--9--9--9-9---7-----------9---9--
A-|--11--11--11-11--9--9--9-9---7-----------9---9--
E-|--9---9---9--9---7--7--7-7---5-----------7---7--


Chorus

Distorted
E-|----------------------------------------
B-|----------------------------------------
G-|--1---1---------------------------------
D-|--2---2----4--4--4----7---7----9--9--9--
A-|--2---2----4--4--4----7---7----9--9--9--
E-|--0---0----2--2--2----5---5----7--7--7--  X3

E-|-----------------------------------
B-|-----------------------------------
G-|-----------------------------------
D-|--11----------7---x---7----9--9----
A-|--11----------7---x---7----9--9----
E-|--9-----------5---x---5----7--7----


Distorted

E-|-----------------------------------------------------------------------------------
B-|-----------------------------------------------------------------------------------
G-|--1-x-x-x--x--x-1------------------------------------------------------------------
D-|--2-x-x-x--x--x-2-----4-x-x-x--x--x-4-----7-x-x-x--x--x-7-----7-x-x-x--x-x---9--9--
A-|--2-x-x-x--x--x-2-----4-x-x-x--x--x-4-----7-x-x-x--x--x-7-----7-x-x-x--x-x---9--9--
E-|--0-x-x-x--x--x-0-----2-x-x-x--x--x-2-----5-x-x-x--x--x-5-----5-x-x-x--x-x---7--7--  X3

Clean

E-|----------------------------------------
B-|----------------------------------------
G-|--1---1---------------------------------
D-|--2---2----4--4--4----7---7----9--9--9--
A-|--2---2----4--4--4----7---7----9--9--9--
E-|--0---0----2--2--2----5---5----7--7--7--  X3

Distorted

E-|-----------------------------------
B-|-----------------------------------
G-|-----------------------------------
D-|--11----------7---x---7----9--9----
A-|--11----------7---x---7----9--9----
E-|--9-----------5---x---5----7--7----

Distorted
E-|----------------------------------------
B-|----------------------------------------
G-|--1---1---------------------------------
D-|--2---2----4--4--4----7---7----9--9--9--
A-|--2---2----4--4--4----7---7----9--9--9--
E-|--0---0----2--2--2----5---5----7--7--7--  X3


Chorus

Distorted

E-|----------------------------------------
B-|----------------------------------------
G-|--1---1---------------------------------
D-|--2---2----4--4--4----7---7----9--9--9--
A-|--2---2----4--4--4----7---7----9--9--9--
E-|--0---0----2--2--2----5---5----7--7--7--  X3

E-|-----------------------------------
B-|-----------------------------------
G-|-----------------------------------
D-|--11----------7---x---7----9--9----
A-|--11----------7---x---7----9--9----
E-|--9-----------5---x---5----7--7----

Slowing down

E-|----------------
B-|----------------
G-|--1-x-x-x-x--1--
D-|--2-x-x-x-x--2--
A-|--2-x-x-x-x--2--
E-|--0-x-x-x-x--0--  Let it ring
Comments