New Found Glory - Understatement Chords & Tabs

 

Understatement Chords & Tabs

New Found Glory Chords & Tabs

Version: 7 Type: Tab 0 ratings
1 star 2 stars 3 stars 4 stars 5 stars
comments

Understatement Tab

   
Artist: New Found Glory
Album: Sticks and Stones
Song: (01)-Understatement
Tabbed by: Matt Kerr (kerrbasball19@lycos.com)

~=let note ring
*=palm mute

STANDARD TUNING

Intro  (Gtr. 1) Distortion
e:----------------------------------------------
B:----------------------------------------------
G:----------------------------------------------
D:-2-2-2---------Play 4 times-------------------
A:-2-2-2---2222--------------------2222222222222
E:-0-0-0---0000--------------------0000000000000
     *     ****                    *************
Verse 
(Gtr. 1) Distortion
e:------------------------------------
B:------------------------------------
G:------------------------------------
D:------------------------------------
A:--2222222222222222------------------
E:--0000000000000000------------------
    ****************

(Gtr. 2) Distortion
e:------------------------------------
B:------------------------------------
G:------------------------------------
D:--2~---------4~--------7~-----------
A:--2~---------4~--------7~-----------
E:--0~---------2~--------5~-----------

Pre-Chorus
 (Gtr. 1) Distortion
e:------------------------------------------------
B:------------------------------------------------
G:------------------------------------------------
D:--11-11-11-11--9-9-9-9-7-7-7-7-9-9-9-9-------7-7
A:--11-11-11-11--9-9-9-9-7-7-7-7-9-9-9-9-------7-7
E:---9--9--9--9--7-7-7-7-5-5-5-5-7-7-7-9-------5-5

 (Gtr. 2) Clean
e:-----------------------------------
B:-----------------------------------
G:-----------------------------------
D:-----11--------9-------7--------9--
A:---11--11----9--9----7---7----9---9
E:--9--------7-------5--------7------
[ Tab from: http://www.guitartabs.cc/tabs/n/new_found_glory/understatement_tab_ver_7.html ]
Chorus
 (Both Guitars)
e:-----------------------------------
B:-----------------------------------
G:-----------------------------------
D:-2-2-2-2--4-4-4-4--7-7-7-7--9-9-9-9
A:-2-2-2-2--4-4-4-4--7-7-7-7--9-9-9-9
E:-0-0-0-0--2-2-2-2--5-5-5-5--7-7-7-7

Fill
 (Both Guitars) Distortion
e:---------------------
B:---------------------
G:---------------------
D:--11~--9-9-9---7-7---
A:--11~--9-9-9---7-7---
E:---9~--7-7-7---5-5---
             *

Bridge
 (Both Guitars) Distortion
e:-----------------------------
B:----------------------------- play 3 times, then play 1 
G:----------------------------- time clean
D:-222222-444444-777777-7777777
A:-222222-444444-777777--777777
E:-000000-222222-555555--555555
    ****   ****   ****    ****
Lyrics:
Im sick of smiling
and so is my jaw
cant you see my frown is crubling down?
im sick of being someone im not
please get me out of this slump
im sick of clapping
when i know i can do it better for myself
im sick of wasting
sick of all these words that will never matter

(pre chorus)
i wire these nerves together
hoping for a chance to think on time
and im tracing over your letter
to see if your intentions are as good as mine

(chorus)
but youre gettin worse
i swear it
its hard to prove youre and understatement
youre gettin worse and i know
that youll b calling, calling me again

im done with everything
that had to do with you
dont worry your pictures are already burned
im done with new friends
dont sell yourself short
youll lose it in the end

i can help how i feel

***JUST LISTEN TO THE SONG AND PUT THE PARTS TOGETHER AND PUT THE WORDS IN 
THERE, ITS NOT THAT HARD, I JSUT DIDNT WANT TO WRITE OUT THE ENTIRE THING 
AND ITS ALREADY BEEN 30 MINUTES***
Comments