New Found Glory - Understatement Chords & Tabs

 

Understatement Chords & Tabs

New Found Glory Chords & Tabs

Version: 4 Type: Tab 0 ratings
1 star 2 stars 3 stars 4 stars 5 stars
comments

Understatement Tab

New Found Glory - Understatement (this is correct!)

------------------------------------------------------------------
------------------------------------------------------------------
------------------------------------------------------------------
--2-x-2-xxx-2-x-2-xxx-2-x-2-xxx-2-x-2-xxx-2-xxxxxxxxxxxxxx-------
--2-x-2-xxx-2-x-2-xxx-2-x-2-xxx-2-x-2-xxx-2-xxxxxxxxxxxxxx-------
--0-x-0-xxx-0-x-0-xxx-0-x-0-xxx-0-x-0-xxx-0-xxxxxxxxxxxxxx-------

verse (“.....” means keep palm muting, you’ll know when to stop)
---------------------------------------------------------------
---------------------------------------------------------------
-----------------------(lead)--------------------------------
--2-xxxxx.....------44444444--77777777-------------------------- x4
--2-xxxxx.....------44444444--77777777--------------------------
--0-xxxxx.....------22222222--55555555--------------------------

pre-chorus 
------------------------------------------------------------------
------------------------------------------------------------------
--6666-4444-2222-4444-6666-4444-2222-4-xxxxxx-----------------
--6666-4444-2222-4444-6666-4444-2222-4-xxxxxx-----------------
--4444-2222-0000-2222-4444-2222-0000-2-xxxxxx-----------------
------------------------------------------------------------------
[ Tab from: http://www.guitartabs.cc/tabs/n/new_found_glory/understatement_tab_ver_4.html ]
------------------------------------------------------------------
------------------------------------------------------------------
--6666-4444-2222-4444-6666-4444-2---4--4-----------------------
--6666-4444-2222-4444-6666-4444-2---4--4-----------------------
--4444-2222-0000-2222-4444-2222-0---2--2-----------------------
------------------------------------------------------------------

chorus
------------------------------------------------------------------
------------------------------------------------------------------
-------------2-2-444--------6---2-x-4-4--------------------------
--2-2-444---2-2-444--x3----6---2-x-4-4----2-xxxxxxxxxxxxxx------
--2-2-444---0-0-222--------4---0-x-2-2----2-xxxxxxxxxxxxxx------
--0-0-222----------------------------------0-xxxxxxxxxxxxxx-------

verse 2 same as verse 1 adding a pick slide at the end with rhythmn guitar

prechorus

chorus

after chorus
---------------------------------------------------------------
---------------------------------------------------------------
---------------------------- xxxx-x-2-2---xxxx-x-4-4------------
--xxxx-x-2-2---xxxx-x-4-4---xxxx-x-2-2---xxxx-x-4-4--------- x3
--xxxx-x-2-2---xxxx-x-4-4---xxxx-x-0-0---xxxx-x-2-2-----------
--xxxx-x-0-0---xxxx-x-2-2--------------------------------------

then play chorus clean and so on.......it’s a very easy song by the best band in the world......the boys of new found glory.  Email me at coolguy2236@hotmail.com for comments.  Im pretty sure this is all right.
Comments