New Found Glory - Understatement Chords & Tabs

 

Understatement Chords & Tabs

New Found Glory Chords & Tabs

Version: 3 Type: Tab 0 ratings
1 star 2 stars 3 stars 4 stars 5 stars
comments

Understatement Tab

   
SONG: Understatement
ARTIST: New Found Glory
ALBUM: Sticks and Stones
TABBED BY: Andrew


A note in () means palm mute
A note with * after it means play 8 times
A note with + means let ring




intro
E-----------------------------------------------|
B-----------------------------------------------|
G-----------------------------------------------|
D-----------------------------------------------|
A-2-2-x-x-x-2-2-x-x-x-2-2-x-x-x-2-2-x-x-x-(14*)-|
E-0-0-x-x-x-0-0-x-x-x-0-0-x-x-x-0-0-x-x-x-(12-)-|

verse
E---------------------------------------|
B---------------------------------------|
G---------------------------------------|
D-----------------------2-2-2-2-2-2-2-2-|
A-(2*)-4-4-4-4-4-4-4-4--0-0-0-0-0-0-0-0-|
E-(0-)-2-2-2-2-2-2-2-2------------------|
[ Tab from: http://www.guitartabs.cc/tabs/n/new_found_glory/understatement_tab_ver_3.html ]
bridge
E---------------------------------------------------------------|
B---------------------------------------------------------------|
G---------------------------------------------------------------|
D-6-6-6-6-4-4-4-4-2-2-2-2-4-4-4-4-6-6-6-6-4-4-4-4-2-2-2-2--4--4-|
A-4-4-4-4-2-2-2-2-0-0-0-0-2-2-2-2-4-4-4-4-2-2-2-2-0-0-0-0--2--2-|
E---------------------------------------------------------------|

chorus
E--------------------------------|---------------|
B--------------------------------|---------------|
G-------------------2-2------4-4-|-2+--4-4-------|
D-2-2------4-4------2-2-xxxx-4-4-|-2+--4-4-------|
A-2-2-xxxx-4-4-xxxx-0-0-xxxx-2-2-|-0+--2-2-(14*)-|
E-0-0-xxxx-2-2-xxxx--------------|---------(12-)-|

the coda bit near the end is the same as the chorus but with a different rhythm.

If anyone knows how to play Sonny properly, please post it.



Comments