New Found Glory - Truth Of My Youth Chords & Tabs

 

Truth Of My Youth Chords & Tabs

New Found Glory Chords & Tabs

Version: 3 Type: Tab 0 ratings
1 star 2 stars 3 stars 4 stars 5 stars
comments

Truth Of My Youth Tab

-------------------------------------------------------------------------------
			     New found glory - Truth of my youth
-------------------------------------------------------------------------------
Tabbed by: tom kyle
Email: tombotownusa@hotmail.com e-mail me if ya can figure out the bit in the
background of the pre-chorus 2nd time round!!

Tuning:Standard
Intro guitar 1
e|---------------------------------------------------------------------------|
B|---------------------------------------------------------------------------|
G|--5-2-0---5-2-0--2-0-------------------------------------------------------|
D|--3-3-3---3-3-3--3-3-3---x6------------------------------------------------|
A|---------------------------------------------------------------------------|
E|---------------------------------------------------------------------------|

Intro guitar 2
e|---------------------------------------------------------------------------|
B|---------------------------------------------------------------------------|
G|--3-3------------------3-3-------------------------------------------------|
D|--3-3------------------3-3-------------------------------------------------|
A|--1-1------------------1-1-------------------------------------------------|
E|---------------------------------------------------------------------------|
[ Tab from: http://www.guitartabs.cc/tabs/n/new_found_glory/truth_of_my_youth_tab_ver_3.html ]
e|---------------------------------------------------------------------------|
B|---------------------------------------------------------------------------|
G|--------------------3-3----------------------------------------------------|
D|--3-3-3---3-3-3--3--3-3----------------------------------------------------|
A|--3-3-3---3-3-3--3--1-1----------------------------------------------------|
E|--1-1-1---1-1-1--1---------------------------------------------------------|
Verse guitar 1
e|---------------------------------------------------------------------------|
B|---------------------------------------------------------------------------|
G|-----------------------------3-3-----------10-10-10--10-10-10--------------|
D|--3-3-3-33-333--3-3-3-33--33-3-3------x4-----------------------3-3---------|
A|--3-3-3-33-333--3-3-3-33--33-1-1-----------8-8-8-8---8-8-8-8---3-3---------|
E|--1-1-1-11-111--1-1-1-11--11-----------------------------------1-1---------|
pre-chorus
e|----------------------------------------------------------------------------------|
B|----------------------------------------------------------------------------------|
G|--7-7-7--77-777--5-5-5--55-555--3-3-3--33-333--3-3-3--33-333------5--3--2-0---5---|
D|--7-7-7--77-777--5-5-5--55-555--3-3-3--33-333--3-3-3--33-333--x2--------------5---|
A|--5-5-5--55-555--3-3-3--33-333--1-1-1--11-111--1-1-1--11-111------------------3---|
E|----------------------------------------------------------------------------------|
chorus guitar 1
e|-----------------------------------------------------------------------------------|
B|-----------------------------------------------------------------------------------|
G|------------------3333333333333333----------7-----------5-----------3---55555555---|
D|--33333333333333333333333333333333--7-7-7-7-7---5-5-5-5-5---3-3-3-3-3---55555555-x2|
A|--33333333333333331111111111111111--5-5-5-5-5---3-3-3-3-3---1-1-1-1-1---33333333---|
E|--1111111111111111-----------------------------------------------------------------|
chorus guitar 2				PM    . . . .     . . . .     . . . .
e|-------------------------------------------------------------------------------------------|
B|-------------------------------------------------------------------------------------------|
G|--101010101010101010101010101010109999101010101010101010101010101010109999----------7------|
D|----------------------------------------------------------------------------7-7-7-7-7------|
A|--8-8-8-8-8-8-8-8-8-8-8-8-8-8-8-8-77778-8-8-8-8-8-8-8-8-8-8-8-8-8-8-8-7777--5-5-5-5-5------|
E|-------------------------------------------------------------------------------------------|
									      . . . .
e|---------------------------------------------------------------------------|
B|---------------------------------------------------------------------------|
G|----------5----------3--55555555-------------------------------------------|
D|--5-5-5-5-5--3-3-3-3-3--55555555---x2--------------------------------------|
A|--3-3-3-3-3--1-1-1-1-1--33333333-------------------------------------------|
E|---------------------------------------------------------------------------|
    . . . .    . . . .

Basically how i play it. coudnt figure out the exact strummin patterns but thats pretty close.
Comments