New Found Glory - This Disaster Chords & Tabs

 

This Disaster Chords & Tabs

New Found Glory Chords & Tabs

Version: 1 Type: Bass Tab 0 ratings
1 star 2 stars 3 stars 4 stars 5 stars
comments

This Disaster Bass Tab

   
Tabbed by:cooldude41
E-Mail:guitarmaster41@yahoo.com

Artist:New Found Glory
Album:Catalyst
Song:This Disaster

Tuning:

/ = SLIDE UP
\ = SLIDE DOWN
h = HAMMER ON
p = PULL OFF
. = PALM MUTE

Q = 75

--------------------
Intro:
--------------------

g[----------------------]
d[----------------------]
a[-2-2-----0-2-2-----0~-]
E[-----3-3-------3-3----]

g[-------------]
d[-------------]
a[-2-------0---]
E[---2-3-0---3-]


--------------------
Verse:
--------------------

g[-------------------------]
d[-------------------------]
a[-22-0----0-22-0-------00-]
E[------33--------33-33----]

g[-------]
d[-------]
a[-------]
E[-33-3x-]


--------------------
Chorus:
--------------------
[ Tab from: http://www.guitartabs.cc/tabs/n/new_found_glory/this_disaster_btab.html ]
g[------------------------------------------------------------]
d[-000000----------------------000000-------------------------]
a[---------------000000-000000-------------------------000000-]
E[--------333333-----------------------3333-2222-00000--------]


--------------------
Intro
--------------------


--------------------
Verse
--------------------


--------------------
Chorus
--------------------


--------------------
Interlude:
--------------------

g[---------------------------][---------------]
d[-------------2-4-5-4-5/7-5-][---------------]
a[-2-------0-----------------][-2-------------]
E[---2-3-0---3---------------][---2-3-3-33-3x-]


--------------------
Chorus
--------------------


--------------------
Intro
--------------------


--------------------
End On:
--------------------

E[-3x-]
Comments