New Found Glory - The Story So Far Chords & Tabs

 

The Story So Far Chords & Tabs

New Found Glory Chords & Tabs

Version: 3 Type: Tab 0 ratings
1 star 2 stars 3 stars 4 stars 5 stars
comments

The Story So Far Tab

New Found Glory - The Story So Far

Intro
e|-------------------------------------------------------------------|
B|-------------------------------------------------------------------|
G|---0--------------0-0-0--------------------------------------------|
D|--2----repeat 6x--2-2-2---repeat 4x---x-3-3-3----------------------|
A|-3---3------------3-3-3-3-------------x-3-3-3----------------------|
E|-----1------------------1-------------x-1-1-1----------------------|

Verse
e|-------------------------------------------|
B|-------------------------------------------|
G|-------------------------------------------|
D|--7-7-7-7--x-10-10-10--x-10-10--5-5-5-5-5--|
A|--7-7-7-7--x-10-10-10--x-10-10--5-5-5-5-5--|
E|--5-5-5-5--x--8--8--8--x--8--8--3-3-3-3-3--|
3x
e|----------------------------------------------------|
B|----------------------------------------------------|
G|----------------------------------------------------|
D|--7-7-7-7--x-10-10-10--12-12-12-12-12-12-12-12--10--|
A|--7-7-7-7--x-10-10-10--12-12-12-12-12-12-12-12--10--|
E|--5-5-5-5--x--8--8--8--10-10-10-10-10-10-10-10---8--|
1x

Chorus
e|-------------------------------------------------------------------|
B|-------------------------------------------------------------------|
G|-------------------------------------------------------------------|
D|--10-10-10-10-x-x--3-3-x-x--10-10-10-10-x-x--3-3-x-x---------------|
A|--10-10-10-10-x-x--3-3-x-x--10-10-10-10-x-x--3-3-x-x---------------|
E|---8--8--8--8-x-x--1-1-x-x---8--8--8--8-x-x--1-1-x-x---------------|

e|-------------------------------------------------------------------|
B|-------------------------------------------------------------------|
G|-------------------------------------------------------------------|
D|--7-7-7-7-x-x--3-3-x-x--7-7-7-7-x-x--3-3-x-x-----------------------|
A|--7-7-7-7-x-x--3-3-x-x--7-7-7-7-x-x--3-3-x-x-----------------------|
E|--5-5-5-5-x-x--1-1-x-x--5-5-5-5-x-x--1-1-x-x-----------------------|
2x

Intro
e|-------------------------------------------------------------------|
B|-------------------------------------------------------------------|
G|---0--------------0-0-0--------------------------------------------|
D|--2----repeat 4x--2-2-2---repeat 2x---x-3-3-3----------------------|
A|-3---3------------3-3-3-3-------------x-3-3-3----------------------|
E|-----1------------------1-------------x-1-1-1----------------------|




Verse
e|-------------------------------------------|
B|-------------------------------------------|
G|-------------------------------------------|
D|--7-7-7-7--x-10-10-10--x-10-10--5-5-5-5-5--|
A|--7-7-7-7--x-10-10-10--x-10-10--5-5-5-5-5--|
E|--5-5-5-5--x--8--8--8--x--8--8--3-3-3-3-3--|
3x
e|----------------------------------------------------|
B|----------------------------------------------------|
G|----------------------------------------------------|
D|--7-7-7-7--x-10-10-10--12-12-12-12-12-12-12-12--10--|
A|--7-7-7-7--x-10-10-10--12-12-12-12-12-12-12-12--10--|
E|--5-5-5-5--x--8--8--8---7--7--7--7--7--7--7--7---8--|
1x
[ Tab from: http://www.guitartabs.cc/tabs/n/new_found_glory/the_story_so_far_tab_ver_3.html ]
Chorus
e|-------------------------------------------------------------------|
B|-------------------------------------------------------------------|
G|-------------------------------------------------------------------|
D|--10-10-10-10-x-x--3-3-x-x--10-10-10-10-x-x--3-3-x-x---------------|
A|--10-10-10-10-x-x--3-3-x-x--10-10-10-10-x-x--3-3-x-x---------------|
E|---8--8--8--8-x-x--1-1-x-x---8--8--8--8-x-x--1-1-x-x---------------|

e|-------------------------------------------------------------------|
B|-------------------------------------------------------------------|
G|-------------------------------------------------------------------|
D|--7-7-7-7-x-x--3-3-x-x--7-7-7-7-x-x--3-3-x-x-----------------------|
A|--7-7-7-7-x-x--3-3-x-x--7-7-7-7-x-x--3-3-x-x-----------------------|
E|--5-5-5-5-x-x--1-1-x-x--5-5-5-5-x-x--1-1-x-x-----------------------|
4x
Solo
e|--------------------------------------------|
B|--------------------------------------------|
G|--------12-12-10-10-9-9-------------9----9--|
D|-----10-----------------10-12-10-12---12----|
A|--10----------------------------------------|
E|--------------------------------------------|

e|---------------------------------------------|
B|---------------------------------------------|
G|--------12-12-10-10-9-9-------------9--------|
D|-----10-----------------10-12-10-12---12-10--|
A|--10-----------------------------------------|
E|---------------------------------------------|
2x

Bridge 1
e|------------------|	
B|------------------|		
G|------------------|
D|--10---9---7---9--|	
A|--10---9---7---9--|	
E|---8---7---5---7--|	
2x
Bridge 2
e|---------------|
B|---------------|
G|---------------|
D|--10-10-10--3--|
A|--10-10-10--3--|
E|---8--8--8--1--|
4x 

Verse
e|-------------------------------------------|
B|-------------------------------------------|
G|-------------------------------------------|
D|--7-7-7-7--x-10-10-10--x-10-10--5-5-5-5-5--|
A|--7-7-7-7--x-10-10-10--x-10-10--5-5-5-5-5--|
E|--5-5-5-5--x--8--8--8--x--8--8--3-3-3-3-3--|
3x
e|----------------------------------------------------|
B|----------------------------------------------------|
G|----------------------------------------------------|
D|--7-7-7-7--x-10-10-10--12-12-12-12-12-12-12-12--10--|
A|--7-7-7-7--x-10-10-10--12-12-12-12-12-12-12-12--10--|
E|--5-5-5-5--x--8--8--8---7--7--7--7--7--7--7--7---8--|
1x

Chorus
e|-------------------------------------------------------------------|
B|-------------------------------------------------------------------|
G|-------------------------------------------------------------------|
D|--10-10-10-10-x-x--3-3-x-x--10-10-10-10-x-x--3-3-x-x---------------|
A|--10-10-10-10-x-x--3-3-x-x--10-10-10-10-x-x--3-3-x-x---------------|
E|---8--8--8--8-x-x--1-1-x-x---8--8--8--8-x-x--1-1-x-x---------------|

e|-------------------------------------------------------------------|
B|-------------------------------------------------------------------|
G|-------------------------------------------------------------------|
D|--7-7-7-7-x-x--3-3-x-x--7-7-7-7-x-x--3-3-x-x-----------------------|
A|--7-7-7-7-x-x--3-3-x-x--7-7-7-7-x-x--3-3-x-x-----------------------|
E|--5-5-5-5-x-x--1-1-x-x--5-5-5-5-x-x--1-1-x-x-----------------------|
4x
Solo
e|--------------------------------------------|
B|--------------------------------------------|
G|--------12-12-10-10-9-9-------------9----9--|
D|-----10-----------------10-12-10-12---12----|
A|--10----------------------------------------|
E|--------------------------------------------|

e|---------------------------------------------|
B|---------------------------------------------|
G|--------12-12-10-10-9-9-------------9--------|
D|-----10-----------------10-12-10-12---12-10--|
A|--10-----------------------------------------|
E|---------------------------------------------|
2x
Comments