New Found Glory - The Story So Far Chords & Tabs

 

The Story So Far Chords & Tabs

New Found Glory Chords & Tabs

Version: 2 Type: Tab 0 ratings
1 star 2 stars 3 stars 4 stars 5 stars
comments

The Story So Far Tab

Artist:NEW FOUND GLORY
Song:THE STORY SO FAR
Album:STICKS AND STONES
E-mail:greenday_rhcp2002@yahoo.co.uk

 
|-----------------------------------|
|-----------------------------------|
|-----0-----------0----------0------|
|---2-----------2----------2--------|
|-3------3----3------3---3-------3--| 
|--------1-----------1-----------1--|x2

|-------------------------------------------|
|-------------------------------------------|
|-------------------------------------------|
|-2--2--0----2--2--0----2--2--0----2--2--0--|
|-3--3--3----3--3--3----3--3--3----3--3--3--|
|-------1----------1----------1----------1--|x1
           
|---------------------------------------|
|---------------------------------------|
|---------------x-5-5-5-x-----5-5-------|
|-5-5-5-7-7-7-7-x-5-5-5-x-3-3-5-5-5-5-5-|
|-5-5-5-7-7-7-7-x-3-3-3-x-3-3-3-3-5-5-5-| x3
|-3-3-3-5-5-5-5-x-------x-1-1-----3-3-3-|

|--------------------------------------|
|--------------------------------------|
|-----------5-5-x-7-7-7-7-7-7-7-7--5~--|
|-7-7-7-7-x-5-5-x-7-7-7-7-7-7-7-7--5~--|
|-7-7-7-7-x-3-3-x-5-5-5-5-5-5-5-5--3~--|
|-5-5-5-5-x----------------------------|x1


|-----------------------------------------------|\
|-----------------------------------------------| \
|-5-5-5-5-x-x-x-x-------5-5-5-5-x-x-x-x---------|  \  
|-5-5-5-5-x-x-x-x-3-3-3-5-5-5-5-x-x-x-x-3-3-3---|   \  
|-3-3-3-3-x-x-x-x-3-3-3-3-3-3-3-x-x-x-x-3-3-3---|    \   
|-----------------1-1-1-----------------1-1-1---|     \      
                                                      x2
|-----------------------------------------------|     /       
|-----------------------------------------------|    /       
|-----------------------------------------------|   /                          
|-7-7-7-7-x-x-x-x-3-3-3--7-7-7-7-x-x-x-x-5-5-5--|  /  
|-7-7-7-7-x-x-x-x-3-3-3--7-7-7-7-x-x-x-x-5-5-5--| / 
|-5-5-5-5-x-x-x-x-1-1-1--5-5-5-5-x-x-x-x-3-3-3--|/ 

|--------------------------------------------|
|--------------------------------------------|
|-----0-----------0-----------0---------0----|
|---2-----------2-----------2---------2------|
|-3------3----3------3----3-----3---3-----3--|
|--------1-----------1----------1---------1--|x1

|----------------------|
|----------------------|
|----------------------|
|-2--2--0----2--2--0---|
|-3--3--3----3--3--3---|
|-------1----------1---|x1

|----------------------------------------|
|----------------------------------------|
|---------------x-5-5-5-x-----5-5--------|
|-5-5-5-7-7-7-7-x-5-5-5-x-3-3-5-5-5-5-5--|
|-5-5-5-7-7-7-7-x-3-3-3-x-3-3-3-3-5-5-5--|
|-3-3-3-5-5-5-5-x-------x-1-1-----3-3-3--|x3

|--------------------------------------|
|--------------------------------------|
|-----------5-5-x-7-7-7-7-7-7-7-7--5~--|
|-7-7-7-7-x-5-5-x-7-7-7-7-7-7-7-7--5~--|
|-7-7-7-7-x-3-3-x-5-5-5-5-5-5-5-5--3~--|
|-5-5-5-5-x----------------------------|x1
[ Tab from: http://www.guitartabs.cc/tabs/n/new_found_glory/the_story_so_far_tab_ver_2.html ]
|-----------------------------------------------|\
|-----------------------------------------------| \
|-5-5-5-5-x-x-x-x-------5-5-5-5-x-x-x-x---------|  \  
|-5-5-5-5-x-x-x-x-3-3-3-5-5-5-5-x-x-x-x-3-3-3---|   \  
|-3-3-3-3-x-x-x-x-3-3-3-3-3-3-3-x-x-x-x-3-3-3---|    \     
|-----------------1-1-1-----------------1-1-1---|     \      
                                                      x4
e-----------------------------------------------|     /    
B-----------------------------------------------|    /      
G-----------------------------------------------|   /                           
D-7-7-7-7-x-x-x-x-3-3-3--7-7-7-7-x-x-x-x-5-5-5--|  /   
A-7-7-7-7-x-x-x-x-3-3-3--7-7-7-7-x-x-x-x-5-5-5--| / 
E-5-5-5-5-x-x-x-x-1-1-1--5-5-5-5-x-x-x-x-3-3-3--|/
 

2nd GUITAR comes in with this on 3rd time lead starts to play riff above
|-----3-3-1-1-0-------0-------0-----3-3-1-1-0-------0---------|
|---1-----------3-1-3---3-1-3-----1-----------3-1-3---3-1-3-1-|
|-0-----------------------------0-----------------------------|
|-------------------------------------------------------------|
|-------------------------------------------------------------|
|-------------------------------------------------------------|x2

Lead guitar                                2nd guitar
|------------------------------------|    |---------------------------|
|------------------------------------|    |---------------------------|
|-5---5---5---5---5---5---5---5---5--|    |-7777777777777777777777777-|
|-5---5---5---5---5---5---5---5---5--|    |-7777777777777777777777777-|
|-3---2---0---3---2---0---3---2---0--|    |-5555555555555555555555555-|
|------------------------------------|    |---------------------------|

This part im not sure but i play it like this you just have to imprevise
listen to the song and hit the string.Some is palm muted OR x 
|----------------------|  this is not tabbed xactly how to play it just listen 
|--------------0-------|  to the song for that.
|---5---5----5---5---5-|
|--5---5---5-------5---|
|-3--------------------|
|----------------------|


|----------------------------------------|
|----------------------------------------|
|---------------x-5-5-5-x-----5-5--------|
|-5-5-5-7-7-7-7-x-5-5-5-x-3-3-5-5-5-5-5--|
|-5-5-5-7-7-7-7-x-3-3-3-x-3-3-3-3-5-5-5--|
|-3-3-3-5-5-5-5-x-------x-1-1-----3-3-3--|x3

|--------------------------------------|
|--------------------------------------|
|-----------5-5-x-7-7-7-7-7-7-7-7--5~--|
|-7-7-7-7-x-5-5-x-7-7-7-7-7-7-7-7--5~--|
|-7-7-7-7-x-3-3-x-5-5-5-5-5-5-5-5--3~--|
|-5-5-5-5-x----------------------------|x1

|-----------------------------------------------|\
|-----------------------------------------------| \
|-5-5-5-5-x-x-x-x-------5-5-5-5-x-x-x-x---------|  \  
|-5-5-5-5-x-x-x-x-3-3-3-5-5-5-5-x-x-x-x-3-3-3---|   \  
|-3-3-3-3-x-x-x-x-3-3-3-3-3-3-3-x-x-x-x-3-3-3---|    \     
|-----------------1-1-1-----------------1-1-1---|     \      
                                                      x4
|-----------------------------------------------|     /    
|-----------------------------------------------|    /      
|-----------------------------------------------|   /                           
|-7-7-7-7-x-x-x-x-3-3-3--7-7-7-7-x-x-x-x-5-5-5--|  /   
|-7-7-7-7-x-x-x-x-3-3-3--7-7-7-7-x-x-x-x-5-5-5--| / 
|-5-5-5-5-x-x-x-x-1-1-1--5-5-5-5-x-x-x-x-3-3-3--|/
 

2nd GUITAR comes in with this on 3rd time lead starts to play riff above
|-----3-3-1-1-0-------0-------0-----3-3-1-1-0-------0---------|
|---1-----------3-1-3---3-1-3-----1-----------3-1-3---3-1-3-1-|
|-0-----------------------------0-----------------------------|
|-------------------------------------------------------------|
|-------------------------------------------------------------|
|-------------------------------------------------------------|x2


outro x1
|------------|
|------------|
|-----0------|
|---2--------|
|-3------1~--|
|--------3~--|


Thats the lot i think everythimg is 100% correct except the part i
said  wasnt sure about. Any corrections please send to e-mail
Comments