New Found Glory - The Story So Far Chords & Tabs

 

The Story So Far Chords & Tabs

New Found Glory Chords & Tabs

Version: 2 Type: Bass Tab 0 ratings
1 star 2 stars 3 stars 4 stars 5 stars
comments

The Story So Far Bass Tab

Figure out and submitted by : Dejackamo Von Rictor from Barstow CA

NFG - Story so far
Album - sticks and stones
track - 12

Intro/Ending
|-------------------|----------|
|-------------------|----------|
|-3-3-3~------------|----------|
|----------1~-------|---3-3-3--|
[ Tab from: http://www.guitartabs.cc/tabs/n/new_found_glory/the_story_so_far_btab_ver_2.html ]
Pre-chorus
|------------------------------------------|-----------------------------------|
|------------------------------------------|-----------------------------------|
|-0-0-0--3-3-3-3-3-------------------------|-----------------------------------|
|----------------------1-1-1-1--3-3-3--5-5-|--1-1-1-1-1-1-1-1--3-3-3-3-3-3-3-3-|

Chours/First Bridge
|-----------------------------------------------------------------|
|-----------------------------------------------------------------|
|-3-3-3-333-------3-3-3-333---------------------------------------|
|------------1-1-------------1-1---5-5-5-555--1-1--5-5-5-555--3-3-|

Second Bridge
|--------------------------------|
|--------------------------------|
|-0~----3~-----------------------|
|---------------5~----1~---------|
 "whatever you do , when your playing this song
don't forget the blonde girls are freakin hott."
Comments