New Found Glory - The Story So Far Acoustic Chords & Tabs

 

The Story So Far Acoustic Chords & Tabs

New Found Glory Chords & Tabs

Version: 3 Type: Tab 0 ratings
1 star 2 stars 3 stars 4 stars 5 stars
comments

The Story So Far Acoustic Tab

-->New Found Glory - The Story So Far (acoustic)<--
Tabbed by Jason Hallare and Abby Lima
juhzun@yahoo.com


Standard Tunning


--|Intro|--

-Guitar 1 (0:00)-(0:03)
e|-------------|
B|-------------|
G|-------0-----|
D|-----2-------|
A|---3-----3---|
E|---------1---|
      (1x)


--|Verse|--

-Guitar 1 (0:04)-(0:40)
e|-------------|-----------|
B|-------------|-----------|
G|-------0-----|-----------|
D|-----2-------|-----------|
A|---3-----3---|--x-3-3-3--|
E|---------1---|--x-1-1-1--|
      (9x)        (end)

-Guitar 2 (0:25)-(0:40)
jump in after guitar 1 goes 6times
e|-------------|-----------|
B|-------------|-----------|
G|---0-0-0-----|-----------|
D|---2-2-2-----|-----------|
A|---3-3-3-3---|--x-3-3-3--|
E|---------1---|--x-1-1-1--|
      (4x)        (end)


--|Chorus|--

-Guitar 1+2 (0:40)-(0:51)
e|------------------------|-----------------------|
B|------------------------|------------22222220---|
G|------------------------|------------222222212--|
D|--2222x--555x-----------|--2222x--555000000002--|
A|--0000x--333x--5557733--|--0000x--333-----------|
E|---------------3335533--|-----------------------|
           (3x)               (1x)


-Guitar 1+2 (0:58)-(1:13)
e|-----------------------------------------------------------------|
B|-----------------------------------------------------------------|
G|--5555-xxxx------------------------------------------------------|
D|--5555-xxxx-5555--3333-xxxx-------7777-xxxx-7777--3333-xxxx------|
A|--3333-xxxx-3333--3333-xxxx-3333--7777-xxxx-7777--3333-xxxx-333--|
E|------------------1111-xxxx-1111--5555-xxxx-5555--1111-xxxx-111--|
                                (2x)       


--|Verse 2|--

-Guitar 1 (1:14)-(1:38)
e|-------------|-----------|
B|-------------|-----------|
G|-------0-----|-----------|
D|-----2-------|-----------|
A|---3-----3---|--x-3-3-3--|
E|---------1---|--x-1-1-1--|
      (9x)        (end)

-Guitar 2 (1:29)-(1:38)
jump in after guitar 1 goes 6times
e|-------------|-----------|
B|-------------|-----------|
G|---0-0-0-----|-----------|
D|---2-2-2-----|-----------|
A|---3-3-3-3---|--x-3-3-3--|
E|---------1---|--x-1-1-1--|
      (4x)        (end)


--|Chorus|--

-Guitar 1+2 (1:39)-(1:54)
e|------------------------|-----------------------|
B|------------------------|------------22222220---|
G|------------------------|------------222222212--|
D|--2222x--555x-----------|--2222x--555000000002--|
A|--0000x--333x--5557733--|--0000x--333-----------|
E|---------------3335533--|-----------------------|
           (3x)               (1x)

-Guitar 1+2 (1:55)-(2:10)
e|-----------------------------------------------------------------|
B|-----------------------------------------------------------------|
G|--5555-xxxx------------------------------------------------------|
D|--5555-xxxx-5555--3333-xxxx-------7777-xxxx-7777--3333-xxxx------|
A|--3333-xxxx-3333--3333-xxxx-3333--7777-xxxx-7777--3333-xxxx-333--|
E|------------------1111-xxxx-1111--5555-xxxx-5555--1111-xxxx-111--|
                                (2x)       
   

--|Solo|--

-Guitar 1 (2:11)-(2:26)
Do this twice
e|---------------------------------------------------------------------------------------|
B|---------------------------------------------------------------------------------------|
G|------12-12-10-10-9-----------9-----------9------12-12-10-10-9--------9----------------|
D|----10-------------10h12-10-12-10h12-10-12-----10-------------10h12-10-10h12-10-12-10--|
A|--10-----------------------------------------10----------------------------------------|
E|---------------------------------------------------------------------------------------|
[ Tab from: http://www.guitartabs.cc/tabs/n/new_found_glory/the_story_so_far_acoustic_tab_ver_3.html ]
-Guitar 2 (2:11)-(2:26)
e|-----------------------------------------------------------------|
B|-----------------------------------------------------------------|
G|--5555-xxxx------------------------------------------------------|
D|--5555-xxxx-5555--3333-xxxx-------7777-xxxx-7777--3333-xxxx------|
A|--3333-xxxx-3333--3333-xxxx-3333--7777-xxxx-7777--3333-xxxx-333--|
E|------------------1111-xxxx-1111--5555-xxxx-5555--1111-xxxx-111--|
                                (2x)       


--|Pre-Bridge|--

-Guitar 1 (2:26)-(2:41)
e|------------------|
B|------------------|
G|------------------|
D|--3~--5~--7~--5~--|
A|--3~--5~--7~--5~--|
E|--1~--3~--5~--3~--|
         (2x)
  
-Guitar 2 (2:34)-(2:41)
e|--------------------------------------------------|
B|--------------------------------------------------|
G|--------------------------------------------------|
D|--33333-3333--55555-5555--77777-7777--55555-5555--|
A|--33333-3333--55555-5555--77777-7777--55555-5555--|
E|--11111-1111--33333-3333--55555-5555--33333-3333--|
                         (2x)  

--|Bridge|--

-Guitar 1 (2:42)-(2:57)
e|-----------------------|------------------------|
B|-----------------------|------------------------|
G|-----------------12-12-|-----12-12-9--------9---|
D|---10---12---10--12-12-|---10-------12-10-12-10-|
A|-10--10-10-10--10------|-10------------------10-|
E|-----------------------|------------------------|

e|--------------------------|-------------------------|
B|--------------------------|-------------------------|
G|--------------------12-12-|-9-----------------------|
D|---10-----10-----10-10-10-|--12-10----10--10--12-10-|
A|-10--10-10--10-10---------|---------10--10--10------|
E|--------------------------|-------------------------|

-Guitar 2 (2:42)-(2:57)
e|-------------|-----------|
B|-------------|-----------|
G|---0-0-0-----|-----------|
D|---2-2-2-----|-----------|
A|---3-3-3-3---|--x-3-3-3--|
E|---------1---|--x-1-1-1--|
      (4x)        (end)

--|Chorus|--

-Guitar 1+2 (2:57)-(3:13)
e|------------------------|-----------------------|
B|------------------------|------------22222220---|
G|------------------------|------------222222212--|
D|--2222x--555x-----------|--2222x--555000000002--|
A|--0000x--333x--5557733--|--0000x--333-----------|
E|---------------3335533--|-----------------------|
           (3x)               (1x)


-Guitar 1+2 (3:14)-(3:29)
e|-----------------------------------------------------------------|
B|-----------------------------------------------------------------|
G|--5555-xxxx------------------------------------------------------|
D|--5555-xxxx-5555--3333-xxxx-------7777-xxxx-7777--3333-xxxx------|
A|--3333-xxxx-3333--3333-xxxx-3333--7777-xxxx-7777--3333-xxxx-333--|
E|------------------1111-xxxx-1111--5555-xxxx-5555--1111-xxxx-111--|
                                (2x)       

--|Ending|--

-Guitar 1 (3:30)-(3:45)
Do this twice
e|---------------------------------------------------------------------------------------|
B|---------------------------------------------------------------------------------------|
G|------12-12-10-10-9-----------9-----------9------12-12-10-10-9--------9----------------|
D|----10-------------10h12-10-12-10h12-10-12-----10-------------10h12-10-10h12-10-12-10--|
A|--10-----------------------------------------10----------------------------------------|
E|---------------------------------------------------------------------------------------|

-Guitar 2 (3:30)-(3:45)
e|-----------------------------------------------------------------|
B|-----------------------------------------------------------------|
G|--5555-xxxx------------------------------------------------------|
D|--5555-xxxx-5555--3333-xxxx-------7777-xxxx-7777--3333-xxxx------|
A|--3333-xxxx-3333--3333-xxxx-3333--7777-xxxx-7777--3333-xxxx-333--|
E|------------------1111-xxxx-1111--5555-xxxx-5555--1111-xxxx-111--|
                                (2x)
Comments