New Found Glory - That Thing You Do Chords & Tabs

 

That Thing You Do Chords & Tabs

New Found Glory Chords & Tabs

Version: 1 Type: Bass Tab 0 ratings
1 star 2 stars 3 stars 4 stars 5 stars
comments

That Thing You Do Bass Tab

New Found Glory	
That thing you do
>From album "From the screen to your Stereo"
Tabbed and Submitted by Brian Schneider - monkey_boy@hotmail.com/ = slide up
\ = slide down

Intro 
G----------------
D----------------
A--777777777777--
E----------------

Verse 1 and 2
G------------------------------------------------------
D------------------------------------------------------
A-7-7777------------------7-7777----------------4444444
E--------55555-77777-------------55555--77777----------

G---------------------------------------
D---------------------------------------
A---------------------------------------
E-2222222-555555-777777-----------------


Chorus
G--------------------------------------------------
D--------------------------------------------------
A-4-4444---------77---------77777------77777-------
E--------2-2222----77-55555-------55555------7777--

[ Tab from: http://www.guitartabs.cc/tabs/n/new_found_glory/that_thing_you_do_btab.html ]
Bridge
G--------------------------------------------------------------
D--------------------------------------------------------------
A-------------4-444444444--------------------------------------
E-5-555555555-------------2-22222222/7777777/8888888\777777777-


Solo
G------------------------------------------------------
D------------------------------------------------------
A-7-7777------------------7-7777----------------4444444
E--------55555-77777-------------55555--77777----------


Verse 3
G------------------------------------------------------
D------------------------------------------------------
A-7-7777------------------7-7777----------------4444444
E--------55555-77777-------------55555--77777----------

G---------------------------------------
D---------------------------------------
A---------------------------------------
E-2222222-555555-777777-----------------

G-------------------------------------------------------------------
D-------------------------------------------------------------------
A-4-4444---------77---------77777------77777-------77777-------7777-
E--------2-2222----77-55555-------55555------55555-------55555------

End little bit
G------------
D------------
A-9-7\6/7--7-
E------------

Song Order:

Intro x 1
1st Verse x 2
chorus
2nd Verse x 2
Bridge x 1
Solo x 1
Verse 3 x 1
End little bit
Comments