New Found Glory - Sucker Chords & Tabs

 

Sucker Chords & Tabs

New Found Glory Chords & Tabs

Version: 1 Type: Bass Tab 0 ratings
1 star 2 stars 3 stars 4 stars 5 stars
comments

Sucker Bass Tab

new found glory sucker

intro/verse
G---------------------]
D---------------------]
A--44-44--------------]       
E-----------22-22-----]
 6x

G----------------------------------------]
D----------------------------------------]
A--2~----2~----2~------------------------]
E------1~----1~-----1~-----4---4---4---4-]
play once before chorus


chorus
G-------------------------------]
D-------------------------------]
A----44-----44------------------]
E---------22-----22---66--44----]

break for 4 seconds then

during this he sings:"I'm writng it down"
G------------------------]
D------------------------]
A-----4------------------]
E--------4---2-----------]

when u doe that repeat it once

then he starts singing:"What you think about
can we figure out  what happend to our happy ending anyway". 
this is whats player
[ Tab from: http://www.guitartabs.cc/tabs/n/new_found_glory/sucker_btab.html ]
G-------------------------------------------------------------------------------------]
D-------------------------------------------------------------------------------------]
A----4-4-4-4-4-4-4-4-----------------4-4-4-4-4-4-4-4----------------------------------]
E--------------------2-2-2-2-2-2-2-2------------------2-2-2-2-2-2-2-2---1-1-1-1-1-1-1-]

Singing solo

The bass is the only thing playing behind him when he is singing 

he says:"Music low were all alone being wrong never felt so right" 

G------------------------------------------------------------------------------]
D------------------------------------------------------------------------------]
A----1-1-1-1------------1-1-1-1--------------1-1-1-1---------------------------]
E---------------2-2-2-2-------------2-2-2-2--------------2-2-2-2------4-4-4-4--]
play it lightley

then repeat the chorus

chorus
G-------------------------------]
D-------------------------------]
A----44-----44------------------]
E---------22-----22---66--44----]
6x

"I'm writng it down"
G-----------------------]
D-----------------------]
A-----4-----------------]
E--------4---2----------]

G-------------------------------]
D-------------------------------]
A----44-----44------------------]
E---------22-----22---66--44----]
x4
Comments