New Found Glory - Story So Far Acoustic Chords & Tabs

 

Story So Far Acoustic Chords & Tabs

New Found Glory Chords & Tabs

Version: 2 Type: Tab 0 ratings
1 star 2 stars 3 stars 4 stars 5 stars
comments

Story So Far Acoustic Tab

   
*~*~*~*~*~*~*~*~*~*~*~*~*~*~*~*~*~*~*~*~*~*~*~*~*~*~*~*~*~*~*~*~*~*~*~*~*~*~*~*~*~*~*~*~*~*~*~*~*~*~*~*~*~*
Title: The Story So Far (Acoustic) from Sticks & stones (the best album EVER!)
Artist: New Found Glory
Tabbed By: Jess Saunders (Jess_saunders13@hotmail.com)


e--------------------------------------------------------    \
B--------------------------------------------------------     \
G-----0-----------0----------0--------------------------       \
D---2-----------2----------2--------------------------- repeat  >Main Riff Guitar 1
A-3------3----3------3---3-------3-----------------------      /
E--------1-----------1-----------1-----------------------     /

e----------------------------------------------------------  \
B----------------------------------------------------------   \
G----------------------------------------------------------    > Main Riff Guitar 2
D-2--2--5--0----2--2--5--0----2--2--5--0----2--2--5--0-----   /
A-3--3--3--3----3--3--3--3----3--3--3--3----3--3--3--3-----  /
E----------1-------------1-------------1-------------1----- /
           
e--------------------------------------
B--------------------------------------
G---------------x-5-5-5-x-----5-5------
D-5-5-5-7-7-7-7-x-5-5-5-x-3-3-5-5-5-5-5  play 3 times
A-5-5-5-7-7-7-7-x-3-3-3-x-3-3-3-3-5-5-5
E-3-3-3-5-5-5-5-x-------x-1-1-----3-3-3

e--------------------------------------------------
B--------------------------------------------------
G-----------5-5-x-7-7-7-7-7-7-7-7--5---------------------------
D-7-7-7-7-x-5-5-x-7-7-7-7-7-7-7-7--5-------------------------------
A-7-7-7-7-x-3-3-x-5-5-5-5-5-5-5-5--3-let ring------------
E-5-5-5-5-x-------------------------------------------

e--------------------------------------------------\
B--------------------------------------------------  \
G-5-5-5-5-x-x-x-x-------5-5-5-5-x-x-x-x-----------     \
D-5-5-5-5-x-x-x-x-3-3-3-5-5-5-5-x-x-x-x-3-3-3------      \
A-3-3-3-3-x-x-x-x-3-3-3-3-3-3-3-x-x-x-x-3-3-3-----         \
E-----------------1-1-1-----------------1-1-1-----           \ REPEAT 

e-----------------------------------------------             /
B-----------------------------------------------           /
G--------------------------                              /
D-7-7-7-7-x-x-x-x-3-3-3--7-7-7-7-x-x-x-x-5-5-5----     /
A-7-7-7-7-x-x-x-x-3-3-3--7-7-7-7-x-x-x-x-5-5-5----   /
E-5-5-5-5-x-x-x-x-1-1-1--5-5-5-5-x-x-x-x-3-3-3---- /

e--------------------------------------------------------
B--------------------------------------------------------
G-----0-----------0-----------0---------0----------------
D---2-----------2-----------2---------2----------------- 
A-3------3----3------3----3-----3---3-----3----------------
E--------1-----------1----------1---------1---------------

e----------------------------------------------------------
B----------------------------------------------------------
G----------------------------------------------------------
D-2--2--5--0----2--2--5--0-------------
A-3--3--3--3----3--3--3--3------------------
E----------1-------------1-----------------------

e--------------------------------------
B--------------------------------------
G---------------x-5-5-5-x-----5-5------
D-5-5-5-7-7-7-7-x-5-5-5-x-3-3-5-5-5-5-5  play 3 times
A-5-5-5-7-7-7-7-x-3-3-3-x-3-3-3-3-5-5-5
E-3-3-3-5-5-5-5-x-------x-1-1-----3-3-3

e--------------------------------------------------
B--------------------------------------------------
G-----------5-5-x-7-7-7-7-7-7-7-7--5---------------------------
D-7-7-7-7-x-5-5-x-7-7-7-7-7-7-7-7--5------------------------
A-7-7-7-7-x-3-3-x-5-5-5-5-5-5-5-5--3-let ring------------
E-5-5-5-5-x-------------------------------------------
[ Tab from: http://www.guitartabs.cc/tabs/n/new_found_glory/story_so_far_acoustic_tab_ver_2.html ]
e--------------------------------------------------\
B--------------------------------------------------  \
G-5-5-5-5-x-x-x-x-------5-5-5-5-x-x-x-x-----------     \
D-5-5-5-5-x-x-x-x-3-3-3-5-5-5-5-x-x-x-x-3-3-3------      \
A-3-3-3-3-x-x-x-x-3-3-3-3-3-3-3-x-x-x-x-3-3-3-----         \
E-----------------1-1-1-----------------1-1-1-----           \ play 4 

e-----------------------------------------------             / times
B-----------------------------------------------           /
G--------------------------                              /
D-7-7-7-7-x-x-x-x-3-3-3--7-7-7-7-x-x-x-x-5-5-5----     /
A-7-7-7-7-x-x-x-x-3-3-3--7-7-7-7-x-x-x-x-5-5-5----   /
E-5-5-5-5-x-x-x-x-1-1-1--5-5-5-5-x-x-x-x-3-3-3---- /

Guitar 2 start solo below after the guitar 1 plays the thing above twice

e-----3-3-1-1-0-------0-------0-----3-3-1-1-0-------0--------
B---1-----------3-1-3---3-1-3-----1-----------3-1-3---3-1-3-1
G-0-----------------------------0---------------
D-----------------------------------------------      ^
A----------------------------------------------- play twice
E-----------------------------------------------

e-----------------------------------------------
B-----------------------------------------------
G-5----5---5------------------------------------
D-5----5---5------------------------------------
A-3----2---0------------------------------------
E-----------------------------------------------

Guitar 1 play Main riff whilst guitar 2 plays solo below
e-------------3-3-----3-3-0-----------------3-3-0---0---------------
B---1---1---1-----1-1-------3-1---1---1---1-------3-----1---1-3-3-1---
G-0---0---0---------------------0---0---0-------------0---0----------
D---------------------------------------------------------------------
A--------------------------------------------------------------------
E--------------------------------------------------------------------

e--------------------------------------
B--------------------------------------
G---------------x-5-5-5-x-----5-5------
D-5-5-5-7-7-7-7-x-5-5-5-x-3-3-5-5-5-5-5  play 3 times
A-5-5-5-7-7-7-7-x-3-3-3-x-3-3-3-3-5-5-5
E-3-3-3-5-5-5-5-x-------x-1-1-----3-3-3

e--------------------------------------------------
B--------------------------------------------------
G-----------5-5-x-7-7-7-7-7-7-7-7--5---------------------------
D-7-7-7-7-x-5-5-x-7-7-7-7-7-7-7-7--5-------------------------------
A-7-7-7-7-x-3-3-x-5-5-5-5-5-5-5-5--3-let ring------------
E-5-5-5-5-x-------------------------------------------

e--------------------------------------------------\
B--------------------------------------------------  \
G-5-5-5-5-x-x-x-x-------5-5-5-5-x-x-x-x-----------     \
D-5-5-5-5-x-x-x-x-3-3-3-5-5-5-5-x-x-x-x-3-3-3------      \
A-3-3-3-3-x-x-x-x-3-3-3-3-3-3-3-x-x-x-x-3-3-3-----         \
E-----------------1-1-1-----------------1-1-1-----           \ play 4 

e-----------------------------------------------             / times
B-----------------------------------------------           /
G--------------------------                              /
D-7-7-7-7-x-x-x-x-3-3-3--7-7-7-7-x-x-x-x-5-5-5----     /
A-7-7-7-7-x-x-x-x-3-3-3--7-7-7-7-x-x-x-x-5-5-5----   /
E-5-5-5-5-x-x-x-x-1-1-1--5-5-5-5-x-x-x-x-3-3-3---- /

Guitar 2 start solo below after the guitar 1 plays the thing above twice

e-----3-3-1-1-0-------0-------0-----3-3-1-1-0-------0--------
B---1-----------3-1-3---3-1-3-----1-----------3-1-3---3-1-3-1
G-0-----------------------------0---------------
D-----------------------------------------------      ^
A----------------------------------------------- play twice
E-----------------------------------------------

Then just play the main riff once at the end

That’s all I could figure out im pretty sure the whole thing is right mail me with any corrections :-)
Comments