New Found Glory - Sonny Chords & Tabs

 

Sonny Chords & Tabs

New Found Glory Chords & Tabs

Version: 9 Type: Tab 0 ratings
1 star 2 stars 3 stars 4 stars 5 stars
comments

Sonny Tab

   
New Found Glory - Sonny
Sticks and Stones
Tabbed by Tony Fangel

This is my favorite song off of the new album and there are a lot of crap tabs 
out there.  This 

tab is 99% right but if you think it should be a different way please email me @ 

tonybalony4@yahoo.com.  It's D tuned so have fun!

x - palm mute 

Intro/Verse 1 x6 - Guitar 1 
E|-----------------------------------
B|-----------------------------------
G|-----------------------------------
D|-11-11-xxx-99-xxx-11-11-xxx-9999-0-
A|-x--x--xxx-xx-xxx-x--x--xxx-xxxx-x-
D|-7--7--xxx-77-xxx-7--7--xxx-7777-0-

E|------------------------------
B|------------------------------
G|------------------------------
D|-77-xxx-66-xxx-77-xxx-666-444-
A|-xx-xxx-xx-xxx-xx-xxx-xxx-xxx-
D|-44-xxx-44-xxx-44-xxx-444-444- 

Intro/Verse 1&2 - Guitar 2
E|----------------------------------------------------------------
B|----------------------------------------------------------------
G|----------------------------------------------------------------
D|-77-6h7-99-7-77-6h7-99-7-11-11-11h12-99-6h7-11-11-11h12-9-7-9-7-
A|----------------------------------------------------------------
D|----------------------------------------------------------------

Chorus x2 - Guitar 1
E|------------------------------------------------
B|------------------------------------------------
G|------------------------------------------------
D|-77777777-11111111-44-xxx-44-xxx-44-xxx-444-222-
A|-55555555-77777777-44-xxx-44-xxx-44-xxx-444-222-
D|-------------------44-xxx-44-xxx-44-xxx-444-222-
             ^ - Those are 11's

Chorus x2- Guitar 2
E|-----------------------------------------------------------
B|-----------------------------------------------------------
G|-----------------------------------------------------------
D|-77777777-11111111-13-13-xxx-13 13-xxx-13-13-xxx-1313-1111-
A|-55555555-77777777-9--9--xxx-9--9--xxx-9--9--xxx-999--777--
D|-----------------------------------------------------------
             ^ - Those are 11's
[ Tab from: http://www.guitartabs.cc/tabs/n/new_found_glory/sonny_tab_ver_9.html ]
Pre-Verse - Both Guitars
E|-------------------
B|-------------------
G|-------------------
D|-77777777-11111111-
A|-55555555-77777777-
D|-------------------

Verse - Guitar 2

Guitar 1 Cuts Out Until "Depends on the season" then:
Verse x2 - Guitar 1

Chorus x2

Bridge x2 - Guitar 1
E|-------------------------------------
B|-------------------------------------
G|-------------------------------------
D|-77777777-11111111-44444444-22222222-
A|-55555555-77777777-44444444-22222222-
D|-------------------44444444-22222222-

Bridge x2 - Guitar 2
E|-------------------------------------
B|-------------------------------------
G|-------------------------------------
D|-77777777-11111111-13131313-11111111-
A|-55555555-77777777-99999999-77777777-
D|-------------------------------------

Pre-Verse

Verse x2 - Guitar 1

Solo - Guitar 2
E|--------------------------------------------------
B|--------------------------------------------------
G|--------------------------------------------------
D|-77-6h7-99-7-11-11-11h12-99-6h7-11-11-11h12-9-7-9-
A|--------------------------------------------------
D|--------------------------------------------------

E|------------------------------
B|------------------------------
G|------------------------------
D|-77-6h7-99-/16-14-12-11-12-11-
A|------------------------------
D|------------------------------

E|----------------------------------------
B|-------------------------------17-------
G|----14----14-16----16-14----14----14----
D|-14----14-------14-------14----------14-
A|----------------------------------------
D|----------------------------------------

Chorus x2

Bridge x4

Outro - Guitar 1
E|-----------------------------------
B|-----------------------------------
G|-----------------------------------
D|-11-11-xxx-99-xxx-11-11-xxx-9999-0-
A|-x--x--xxx-xx-xxx-x--x--xxx-xxxx-x-
D|-7--7--xxx-77-xxx-7--7--xxx-7777-0-

E|---------------------------------
B|---------------------------------
G|---------------------------------
D|-77-xxx-66-xxx-77-xxx-666-444-11-
A|-xx-xxx-xx-xxx-xx-xxx-xxx-xxx-x--
D|-44-xxx-44-xxx-44-xxx-444-444-7-- 
Comments