New Found Glory - Sonny Chords & Tabs

 

Sonny Chords & Tabs

New Found Glory Chords & Tabs

Version: 8 Type: Tab 0 ratings
1 star 2 stars 3 stars 4 stars 5 stars
comments

Sonny Tab

#-----------------------------------------------------------------------------#
#-- File created with Instab - http://www.pconline.com/~smcarey/instab.html --#
#-----------------------------------------------------------------------------#

Author/Artist: New Found Glory
Title: Sonny
Album: Sticks and Stones
Email: s21s88@aol.com

intro p1 (riff 1)
-|----------------------------------------------------------------------------
-|----------------------------------------------------------------------------
-|--6-6-x-x-x--4-4-x-x-x--6-6-x-x-x--4-4-4-x----------------------------------
-|--6-6-x-x-x--4-4-x-x-x--6-6-x-x-x--4-4-4-x--7-7-x-x-x--6-6-x-x-x--7-7-x-x-x-
-|--4-4-x-x-x--2-2-x-x-x--4-4-x-x-x--2-2-2-x--7-7-x-x-x--6-6-x-x-x--7-7-x-x-x-
-|--------------------------------------------5-5-x-x-x--4-4-x-x-x--5-5-x-x-x-
                                                                              

--------|---------------------------------------------------------------------
--------|---------------------------------------------------------------------
--------|---------------------------------------------------------------------
-6-6-6--|---------------------------------------------------------------------
-6-6-6--|---------------------------------------------------------------------
-4-4-4--|---------------------------------------------------------------------
     
intro p2 (riff 2)                                                        

-|----------------------------------------------------------------------------
-|----------------------------------------------------------------------------
-|--2-2------9-9--2-2------9-9---7-7------------7-7---------------------------
-|--2-2--7-7-9-9--2-2--7-7-9-9---7-7--7-7-9-9---7-7--7-7-9-9------------------
-|--0-0--7-7-7-7--0-0--7-7-7-7---5-5--7-7-9-9---5-5--7-7-9-9------------------
-|-------5-5-----------5-5------------5-5-7-7--------5-5-7-7------------------
       or                                                                     

-|----------------------------------------------------------------------------
-|----------------------------------------------------------------------------
-|--9-9------9-9--9-9------9-9---7-7------------7-7---------------------------
-|--7-7--7-7-9-9--7-7--7-7-9-9---7-7--7-7-9-9---7-7--7-7-9-9------------------
-|-------7-7-7-7-------7-7-7-7---5-5--7-7-9-9---5-5--7-7-9-9------------------
-|-------5-5-----------5-5------------5-5-7-7--------5-5-7-7------------------
   
"Im sorry, I heard the bad news today"                                     
-|----------------------------------------------------------------------------
-|----------------------------------------------------------------------------
-|---6-6-x-x-x--4-4-x-x-x--6-6-x-x-x--4-4-4-x---------------------------------
-|---6-6-x-x-x--4-4-x-x-x--6-6-x-x-x--4-4-4-x--7-7-x-x-x--6-6-x-x-x--7-7-x-x--
-|---4-4-x-x-x--2-2-x-x-x--4-4-x-x-x--2-2-2-x--7-7-x-x-x--6-6-x-x-x--7-7-x-x--
-|---------------------------------------------5-5-x-x-x--4-4-x-x-x--5-5-x-x--

 around you...     Telling you its okay.....                                  
-------------|----------------------------------------------------------------
-------------|----------------------------------------------------------------
-------------|-6-6-x-x-x--4-4-x-x-x--6-6-x-x-x--4-4-x-x-x---------------------
-x--6-6-6-x--|-6-6-x-x-x--4-4-x-x-x--6-6-x-x-x--4-4-x-x-x--7-7-x-x-x--6-6-x---
-x--6-6-6-x--|-4-4-x-x-x--2-2-x-x-x--4-4-x-x-x--2-2-x-x-x--7-7-x-x-x--6-6-x---
-x--4-4-4-x--|---------------------------------------------5-5-x-x-x--4-4-x---

  and everything happenes for a reason..       when you lose a part of....    
---------------------------------------------|--------------------------------
---------------------------------------------|--------------------------------
---------------------------------------------|--6-6-x-x-x--4-4-x-x-x--6-6-6---
-x-x--7-7-x-x-x--6-6-x-x-x-------------------|--6-6-x-x-x--4-4-x-x-x--6-6-6---
-x-x--7-7-x-x-x--6-6-x-x-x-------------------|--4-4-x-x-x--2-2-x-x-x--4-4-4---
-x-x--5-5-x-x-x--4-4-x-x-x-------------------|--------------------------------

 yourself  somebody you know....... to let go.........               every..  
---------------------------------------------------------------|--------------
---------------------------------------------------------------|--------------
-x-x-x--4-4-x-x-x----------------------------------------------|--6-6-x-x-x---
-x-x-x--4-4-x-x-x--7-7-x-x-x--6-6-x-x-x--7-7-x-x-x--6-6-x-x-x--|--6-6-x-x-x---
-x-x-x--2-2-x-x-x--7-7-x-x-x--6-6-x-x-x--7-7-x-x-x--6-6-x-x-x--|--4-4-x-x-x---
-------------------5-5-x-x-x--4-4-x-x-x--5-5-x-x-x--4-4-x-x-x--|--------------

                                   pictures fade away but memories.....       
----------------------------------------------------------------------------|-
----------------------------------------------------------------------------|-
-4-4-x-x-x--6-6-x-x-x--4-4-4-x-x--------------------------------------------|-
-4-4-x-x-x--6-6-x-x-x--4-4-4-x-x--7-7-x-x-x--6-6-x-x-x--7-7-x-x-x--6-6-6-6-x|-
-2-2-x-x-x--4-4-x-x-x--2-2-2-x-x--7-7-x-x-x--6-6-x-x-x--7-7-x-x-x--6-6-6-6-x|-
----------------------------------5-5-x-x-x--4-4-x-x-x--5-5-x-x-x--4-4-4-4-x|-
[ Tab from: http://www.guitartabs.cc/tabs/n/new_found_glory/sonny_tab_ver_8.html ]
      an  empty chair at all the tablesssssssssssssssssssssssss               
-|----------------------------------------------------------------------------
-|----------------------------------------------------------------------------
-|--7-7-7-7-7-7-7-7--9-9-9-9-9-9-9--5-x-x-x--5-x-x-x--5-x-x-x--5-x-x-x-5-x-x--
-|--7-7-7-7-7-7-7-7--9-9-9-9-9-9-9--5-x-x-x--5-x-x-x--5-x-x-x--5-x-x-x-5-x-x--
-|--5-5-5-5-5-5-5-5--7-7-7-7-7-7-7--3-x-x-x--3-x-x-x--3-x-x-x--3-x-x-x-3-x-x--
-|----------------------------------------------------------------------------

  sssssssssssssssssss  and ill be seeing you     (play again)        ..anyway..           
--------------------------------------------------------------|
--------------------------------------------------------------|
-x-2-2-2-2-5-5-5-5-5--7-7-7-7-7-7--5-x-x--5-x-x-x-5-5-5-5-5---|  
-x-2-2-2-2-5-5-5-5-5--7-7-7-7-7-7--5-x-x--5-x-x-x-5-5-5-5-5---|
-x-0-0-0-0-3-3-3-3-3--5-5-5-5-5-5--3-x-x--3-x-x-x-3-3-3-3-3---|
--------------------------------------------------------------|

Now play intro #2

-
-
7
7
5  let ring                                                                             
-
 
bass is playing
                                                                             
when you lose a part of....    
|--------------------------------
|--------------------------------
|--6-6-x-x-x--4-4-x-x-x--6-6-6---
|--6-6-x-x-x--4-4-x-x-x--6-6-6---
|--4-4-x-x-x--2-2-x-x-x--4-4-4---
|--------------------------------

 yourself  somebody you know....... to let go.........               every..  
---------------------------------------------------------------|--------------
---------------------------------------------------------------|--------------
-x-x-x--4-4-x-x-x----------------------------------------------|--6-6-x-x-x---
-x-x-x--4-4-x-x-x--7-7-x-x-x--6-6-x-x-x--7-7-x-x-x--6-6-x-x-x--|--6-6-x-x-x---
-x-x-x--2-2-x-x-x--7-7-x-x-x--6-6-x-x-x--7-7-x-x-x--6-6-x-x-x--|--4-4-x-x-x---
-------------------5-5-x-x-x--4-4-x-x-x--5-5-x-x-x--4-4-x-x-x--|--------------

                                   pictures fade away but memories.....       
----------------------------------------------------------------------------|-
----------------------------------------------------------------------------|-
-4-4-x-x-x--6-6-x-x-x--4-4-4-x-x--------------------------------------------|-
-4-4-x-x-x--6-6-x-x-x--4-4-4-x-x--7-7-x-x-x--6-6-x-x-x--7-7-x-x-x--6-6-6-6-x|-
-2-2-x-x-x--4-4-x-x-x--2-2-2-x-x--7-7-x-x-x--6-6-x-x-x--7-7-x-x-x--6-6-6-6-x|-
----------------------------------5-5-x-x-x--4-4-x-x-x--5-5-x-x-x--4-4-4-4-x|-

      an  empty chair at all the tablesssssssssssssssssssssssss               
-|----------------------------------------------------------------------------
-|----------------------------------------------------------------------------
-|--7-7-7-7-7-7-7-7--9-9-9-9-9-9-9--5-x-x-x--5-x-x-x--5-x-x-x--5-x-x-x-5-x-x--
-|--7-7-7-7-7-7-7-7--9-9-9-9-9-9-9--5-x-x-x--5-x-x-x--5-x-x-x--5-x-x-x-5-x-x--
-|--5-5-5-5-5-5-5-5--7-7-7-7-7-7-7--3-x-x-x--3-x-x-x--3-x-x-x--3-x-x-x-3-x-x--
-|----------------------------------------------------------------------------

  sssssssssssssssssss  and ill be seeing you    (play again)         ..anyway..           
--------------------------------------------------------------|
--------------------------------------------------------------|
-x-2-2-2-2-5-5-5-5-5--7-7-7-7-7-7--5-x-x--5-x-x-x-5-5-5-5-5---|  
-x-2-2-2-2-5-5-5-5-5--7-7-7-7-7-7--5-x-x--5-x-x-x-5-5-5-5-5---|
-x-0-0-0-0-3-3-3-3-3--5-5-5-5-5-5--3-x-x--3-x-x-x-3-3-3-3-3---|
--------------------------------------------------------------|


Rythym plays this while lead plays riff/intro 2  
|--------------------------------
|--------------------------------
|--6-6-x-x-x--4-4-x-x-x--6-6-6---
|--6-6-x-x-x--4-4-x-x-x--6-6-6---
|--4-4-x-x-x--2-2-x-x-x--4-4-4---
|--------------------------------

  
---------------------------------------------------------------
---------------------------------------------------------------
-x-x-x--4-4-x-x-x----------------------------------------------
-x-x-x--4-4-x-x-x--7-7-x-x-x--6-6-x-x-x--7-7-x-x-x--6-6-x-x-x--
-x-x-x--2-2-x-x-x--7-7-x-x-x--6-6-x-x-x--7-7-x-x-x--6-6-x-x-x--
-------------------5-5-x-x-x--4-4-x-x-x--5-5-x-x-x--4-4-x-x-x--

Riff 2 goes into the bridge:
-|----------------------------------------------------------------------------
-|----------------------------------------------------------------------------
-|--9-9------9-9--9-9------9-9---7-7------------7-7----------9-9-9-11-11------
-|--7-7--7-7-9-9--7-7--7-7-9-9---7-7--7-7-9-9---7-7--7-7-9-9-9-9-9-9--9-------
-|-------7-7-7-7-------7-7-7-7---5-5--7-7-9-9---5-5--7-7-9-9-7-7-7------------
-|-------5-5-----------5-5------------5-5-7-7--------5-5-7-7------------------
dunno about the bridge, figure it out.

Keep playing riff 2 until

"better when your going anyway......."

-|----------------------------------------------------------------------------
-|----------------------------------------------------------------------------
-|--6-6-x-x-x--4-4-x-x-x--6-6-x-x-x--4-4-4-x----------------------------------
-|--6-6-x-x-x--4-4-x-x-x--6-6-x-x-x--4-4-4-x--7-7-x-x-x--6-6-x-x-x--7-7-x-x-x-
-|--4-4-x-x-x--2-2-x-x-x--4-4-x-x-x--2-2-2-x--7-7-x-x-x--6-6-x-x-x--7-7-x-x-x-
-|--------------------------------------------5-5-x-x-x--4-4-x-x-x--5-5-x-x-x-
                                                                              

--------|---------------------------------------------------------------------
--------|---------------------------------------------------------------------
--------|---------------------------------------------------------------------
-6-6-6--|---------------------------------------------------------------------
-6-6-6--|---------------------------------------------------------------------
-4-4-4--|---------------------------------------------------------------------

strum slowly towards the end and strum the last chord hard.
Comments