New Found Glory - Sonny Chords & Tabs

 

Sonny Chords & Tabs

New Found Glory Chords & Tabs

Version: 2 Type: Tab 0 ratings
1 star 2 stars 3 stars 4 stars 5 stars
comments

Sonny Tab

------------------------------------------------------------------------------- 
SONNY - NEW FOUND GLORY 
------------------------------------------------------------------------------- 

intro 1st time clean 2nd time distortion 
e|---------------------------------------------------------------------------| 
B|---------------------------------------------------------------------------| 
G|-6-6-666--4-4-444--6-6-666--44444------------------------------------------| 
D|-7-7-777--7-7-777--7-7-777--777770--7-7-777--6-6-666--7-7-777--6-6-666660--| 
A|-0-0-000--0-0-000--0-0-000--000000--5-5-555--5-5-555--5-5-555--5-5-555550--| 
E|---------------------------------------------------------------------------| 
second guitar comes in on second time with this 
e|---------------------------------------------------------------------------| 
B|-----------5-5---------------5-5-------------------------------------------| 
G|-6--6--4-6-----2-4-6--6--4-6-----2-4--6-6--6-7---------6-6-6-7-------------| 
D|-----------------------------------------------9-9-7-9---------9-7-7-9-7---| 
A|---------------------------------------------------------------------------| 
E|---------------------------------------------------------------------------| 

verse: fig 1
"im sorry,i heard about the bad news today, a crowd of people around you" 
e|---------------------------------------------------------------------------| 
B|---------------------------------------------------------------------------| 
G|-6-6-666--4-4-444--6-6-666--44444------------------------------------------| 
D|-7-7-777--7-7-777--7-7-777--777770--7-7-777--6-6-666--7-7-777--6-6-666660--| X4
A|-0-0-000--0-0-000--0-0-000--000000--5-5-555--5-5-555--5-5-555--5-5-555550--| 
E|---------------------------------------------------------------------------| 
[ Tab from: http://www.guitartabs.cc/tabs/n/new_found_glory/sonny_tab_ver_2.html ]
fig 2
"an empty chair at all the tables" 
e|-----------------------------------|---------------------------------------| 
B|-----------------------------------|---------------------------------------| 
G|-777777999999----------------------|-777777999999-1414-141313-131111-11-9--| 
D|-77777799999944-44-44-44-44-44-4-2-|-xxxxxxxxxxxx--x-x--x-x-x--x-x-x--x-x--| X2
A|-55555577777744-44-44-44-44-44-4-2-|-555555777777-1212-121111-11-9-9--9-7--| 
E|-------------22-22-22-22-22-22-2-0-|---------------------------------------| 
guitar 1                              guitar 2 

fig 3
"but its better where you're going anyway" 
e|--------------|---------------------------| 
B|--------------|---------------------------| 
G|-777777999999-|-777777999999--------------| 
D|-777777999999-|-xxxxxxxxxxxx--------------| 
A|-555555777777-|-555555777777--------------| 
E|--------------|---------------------------| 
guitar 1          guitar 2 

intro

verse: "when you lose a part of yourself,to somebody you know,it takes alot to let go" 

fig 4
"for now we'll say goodbye, we know its not the last time" 
e|----------------------------------------------------------| 
B|----------------------------------------------------------| 
G|-77777799999----------------------------------------------| 
D|-777777999994444444422222222------------------------------| X2
A|-555555777774444444422222222------------------------------| 
E|------------2222222200000000------------------------------| 

fig 3

intro

guitar 2 solo 
e|---------------------------------5-5-7-7-5-7-12----(12)-----| 
B|-------------5-5-5p7-5-3-2-3-2-5--5---5---5----10-----------| 
G|-6--6--4-6---------------------------------------9----------| 
D|------------------------------------------------------------| 
A|------------------------------------------------------------| 
E|------------------------------------------------------------| 

fig 2 X2

fig 4 X3

fig 3

Then the outro is the same as the intro

-----------------------------------------------------------------------------------

Comments