New Found Glory - Sonny Chords & Tabs

 

Sonny Chords & Tabs

New Found Glory Chords & Tabs

Version: 14 Type: Tab 0 ratings
1 star 2 stars 3 stars 4 stars 5 stars
comments

Sonny Tab

   
Tabbed By: Jmeijer
Mail:Johan_meijer89@hotmail.com

Intro Guitar.1 x2
e|----------------------------------|
b|----------------------------------|
g|----------------------------------|
d|-11-11-xxx-99-xxx-11-11-xxx-9999--|
a|-x--x--xxx-xx-xxx-x--x--xxx-xxxx--|
e|-7--7--xxx-77-xxx-7--7--xxx-7777--|

e|------------------------------|
b|------------------------------|
g|------------------------------|
d|-77-xxx-66-xxx-77-xxx-666-666-|
a|-xx-xxx-xx-xxx-xx-xxx-xxx-xxx-|
e|-44-xxx-44-xxx-44-xxx-444-444-|

Intro Guitar.2 (only second time)
e|-------------------------------------------------------------|
B|-------------------------------------------------------------|
G|-6-6-----9----6-6-----9----6-6-6-7-9-----6-6-6-7-------------|
D|-----6-7-9-6-7----6-7-9-6-7--------9-6-7---------9-7-7-6-6-9-|
A|-------------------------------------------------------------|
E|-------------------------------------------------------------|


Verse x4
e|----------------------------------|
b|----------------------------------|
g|----------------------------------|
d|-11-11-xxx-99-xxx-11-11-xxx-9999--|
a|-x--x--xxx-xx-xxx-x--x--xxx-xxxx--|
e|-7--7--xxx-77-xxx-7--7--xxx-7777--|

e|------------------------------|
b|------------------------------|
g|------------------------------|
d|-77-xxx-66-xxx-77-xxx-666-666-|
a|-xx-xxx-xx-xxx-xx-xxx-xxx-xxx-|
e|-44-xxx-44-xxx-44-xxx-444-444-|


Chorus
e|----------------------------------------------------------|
B|----------------------------------------------------------|
G|-777777777777-999999999999--------------------------------|
D|-777777777777-999999999999--77-xxx-66-xxx-44-xx-444-222---|
A|-555555555555-777777777777--xx-xxx-xx-xxx-44-xx-444-222---|
E|----------------------------44-xxx-44-xxx-44-xx-444-222---|


e|----------------------------------------------------------|
B|----------------------------------------------------------|
G|-777777777777-999999999999--------------------------------|
D|-777777777777-999999999999--77-xxx-66-xxx-44-xx-444-222---|
A|-555555555555-777777777777--xx-xxx-xx-xxx-44-xx-444-222---|
E|----------------------------44-xxx-44-xxx-44-xx-444-222---|

e|----------------------------------------|
B|----------------------------------------|
G|-777777777777-999999999999--------------|
D|-777777777777-999999999999--------------|
A|-555555555555-777777777777--------------|
E|----------------------------------------|


Intro Guitar.1 (once)
e|----------------------------------|
b|----------------------------------|
g|----------------------------------|
d|-11-11-xxx-99-xxx-11-11-xxx-9999--|
a|-x--x--xxx-xx-xxx-x--x--xxx-xxxx--|
e|-7--7--xxx-77-xxx-7--7--xxx-7777--|

e|------------------------------|
b|------------------------------|
g|------------------------------|
d|-77-xxx-66-xxx-77-xxx-666-666-|
a|-xx-xxx-xx-xxx-xx-xxx-xxx-xxx-|
e|-44-xxx-44-xxx-44-xxx-444-444-|

Intro Guitar.2 
e|-------------------------------------------------------------|
B|-------------------------------------------------------------|
G|-6-6-----9----6-6-----9----6-6-6-7-9-----6-6-6-7-------------|
D|-----6-7-9-6-7----6-7-9-6-7--------9-6-7---------9-7-7-6-6-9-|
A|-------------------------------------------------------------|
E|-------------------------------------------------------------|


Verse x2(Only bass the two first times)
e|----------------------------------|
b|----------------------------------|
g|----------------------------------|
d|-11-11-xxx-99-xxx-11-11-xxx-9999--|
a|-x--x--xxx-xx-xxx-x--x--xxx-xxxx--|
e|-7--7--xxx-77-xxx-7--7--xxx-7777--|

e|------------------------------|
b|------------------------------|
g|------------------------------|
d|-77-xxx-66-xxx-77-xxx-666-666-|
a|-xx-xxx-xx-xxx-xx-xxx-xxx-xxx-|
e|-44-xxx-44-xxx-44-xxx-444-444-|



Chorus
e|----------------------------------------------------------|
B|----------------------------------------------------------|
G|-777777777777-999999999999--------------------------------|
D|-777777777777-999999999999--77-xxx-66-xxx-44-xx-444-222---|
A|-555555555555-777777777777--xx-xxx-xx-xxx-44-xx-444-222---|
E|----------------------------44-xxx-44-xxx-44-xx-444-222---|

E|----------------------------------------------------------|
B|----------------------------------------------------------|
G|-777777777777-999999999999--------------------------------|
D|-777777777777-999999999999--77-xxx-66-xxx-44-xx-4-2-------|
A|-555555555555-777777777777--xx-xxx-xx-xxx-44-xx-4-2-------|
E|----------------------------44-xxx-44-xxx-44-xx-4-2-------|


e|----------------------------------------------------------|
B|----------------------------------------------------------|
G|-777777777777-999999999999-------------------------------|
D|-777777777777-999999999999-444444444444-222222222222------|
A|-555555555555-777777777777-444444444444-222222222222------|
E|---------------------------444444444444-222222222222------|
[ Tab from: http://www.guitartabs.cc/tabs/n/new_found_glory/sonny_tab_ver_14.html ]
e|----------------------------------------------------------|
B|----------------------------------------------------------|
G|-777777777777-999999999999-------------------------------|
D|-777777777777-999999999999-444444444444-222222222222------|
A|-555555555555-777777777777-444444444444-222222222222------|
E|---------------------------444444444444-222222222222------|

e|------------------------------------|
B|------------------------------------|
G|-777777777777-999999999999----------|
D|-777777777777-999999999999----------|
A|-555555555555-777777777777----------|
E|------------------------------------|


Intro
e|----------------------------------|
b|----------------------------------|
g|----------------------------------|
d|-11-11-xxx-99-xxx-11-11-xxx-9999--|
a|-x--x--xxx-xx-xxx-x--x--xxx-xxxx--| 
e|-7--7--xxx-77-xxx-7--7--xxx-7777--|

e|------------------------------|
b|------------------------------|
g|------------------------------|
d|-77-xxx-66-xxx-77-xxx-666-666-|
a|-xx-xxx-xx-xxx-xx-xxx-xxx-xxx-|
e|-44-xxx-44-xxx-44-xxx-444-444-|


Intro Guitar.2 
e|-------------------------------------------------------------|
B|-------------------------------------------------------------|
G|--------------6-6-----9----6-6-6-7-9-----6-6-6-7-------------|
D|------------------6-7-9-6-7--------9-6-7---------9-7-7-6-6-9-|
A|-------------------------------------------------------------|
E|-------------------------------------------------------------|


Solo guitar 1 
e|----------------------------------------------------------------------|
B|----------------------------------------------------------17----------|
G|-6-6---------9-11-9------------14----14-16----16-14----14----14----14-|
D|-----6-7-9-9--------11-12-11-9----14-------14-------14----------14----|
A|----------------------------------------------------------------------|
E|----------------------------------------------------------------------|

 Guitar 2 During the solo
e|----------------------------------|
b|----------------------------------|
g|----------------------------------|
d|-11-11-xxx-99-xxx-11-11-xxx-9999--|
a|-x--x--xxx-xx-xxx-x--x--xxx-xxxx--| 
e|-7--7--xxx-77-xxx-7--7--xxx-7777--|

e|------------------------------|
b|------------------------------|
g|------------------------------|
d|-77-xxx-66-xxx-77-xxx-666-666-|
a|-xx-xxx-xx-xxx-xx-xxx-xxx-xxx-|
e|-44-xxx-44-xxx-44-xxx-444-444-|


Chorus
e|----------------------------------------------------------|
B|----------------------------------------------------------|
G|-777777777777-999999999999--------------------------------|
D|-777777777777-999999999999--77-xxx-66-xxx-44-xx-444-222---|
A|-555555555555-777777777777--xx-xxx-xx-xxx-44-xx-444-222---|
E|----------------------------44-xxx-44-xxx-44-xx-444-222---|


e|----------------------------------------------------------|
B|----------------------------------------------------------|
G|-777777777777-999999999999--------------------------------|
D|-777777777777-999999999999--77-xxx-66-xxx-44-xx-4-2-------|
A|-555555555555-777777777777--xx-xxx-xx-xxx-44-xx-4-2-------|
E|----------------------------44-xxx-44-xxx-44-xx-4-2-------|

e|----------------------------------------------------------|
B|----------------------------------------------------------|
G|-777777777777-999999999999-------------------------------|
D|-777777777777-999999999999-444444444444-222222222222------|
A|-555555555555-777777777777-444444444444-222222222222------|
E|---------------------------444444444444-222222222222------|

e|----------------------------------------------------------|
B|----------------------------------------------------------|
G|-777777777777-999999999999-------------------------------|
D|-777777777777-999999999999-444444444444-222222222222------|
A|-555555555555-777777777777-444444444444-222222222222------|
E|---------------------------444444444444-222222222222------|

e|----------------------------------------------------------|
B|----------------------------------------------------------|
G|-777777777777-999999999999-------------------------------|
D|-777777777777-999999999999-444444444444-222222222222------|
A|-555555555555-777777777777-444444444444-222222222222------|
E|---------------------------444444444444-222222222222------|

e|--------------------------------|
B|--------------------------------|
G|-777777777777-999999999999-----|
D|-777777777777-999999999999------|
A|-555555555555-777777777777------|
E|--------------------------------|

Outro 
e|----------------------------------|
b|----------------------------------|
g|----------------------------------|
d|-11-11-xxx-99-xxx-11-11-xxx-9999--|
a|-x--x--xxx-xx-xxx-x--x--xxx-xxxx--|
e|-7--7--xxx-77-xxx-7--7--xxx-7777--|

e|------------------------------|
b|------------------------------|
g|------------------------------|
d|-77-xxx-66-xxx-77-xxx-666-666-|
a|-xx-xxx-xx-xxx-xx-xxx-xxx-xxx-|
e|-44-xxx-44-xxx-44-xxx-444-444-|
Comments