New Found Glory - Sonny Chords & Tabs

 

Sonny Chords & Tabs

New Found Glory Chords & Tabs

Version: 10 Type: Tab 0 ratings
1 star 2 stars 3 stars 4 stars 5 stars
comments

Sonny Tab

----------------------------------------------------------------------
			     Sonny - New Found Glory
----------------------------------------------------------------------

By: RyGuy

Intro/Outro
e|-------------------------------------------------------------------|
B|-------------------------------------------------------------------|
G|---6-6-6644-X-X--6644----------------------------------------------|
D|---7-7-7777-X-X--7777---7-7-7766-7-7-7766-(ends-on-(6) in outro)---|
A|------------------------9-9-9999-9-9-9999----------(7)-------------|
E|-------------------------------------------------------------------|

Bridge
e|-------------------------------------------------------------------|
B|-------------------------------------------------------------------|
G|---6-6-6h7/9-9--6-6-6h7/9-9-----6-6--6h7-4-4-----------------------|
D|---7-7-7-/-9-9--7-7-7-/-9-9-----7-7--7---7-7-----------------------|
A|-------------------------------------------------------------------|
E|-------------------------------------------------------------------|
[ Tab from: http://www.guitartabs.cc/tabs/n/new_found_glory/sonny_tab_ver_10.html ]
Verse
e|-------------------------------------------------------------------|
B|-------------------------------------------------------------------|
G|-6-6-X-X-6699--6-6-X-X-6699--6-6-X-X-44-X-X-66-X-X-44--------------|
D|-7-7-X-X-7799--6-6-X-X-6699--7-7-X-X-77-X-X-77-X-X-77--------------|
A|-------------------------------------------------------------------|
E|-------------------------------------------------------------------|
Chorus
e|-------------------------------------------------------------------|
B|-------------------------------------------------------------------|
G|--77777777-99999999--4-4-X-X-4-4-X-X-4-4-X-X-44-222----------------|
D|--77777777-99999999--4-4-X-X-4-4-X-X-4-4-X-X-44-222----------------|
A|--55555555-77777777--2-2-X-X-2-2-X-X-2-2-X-X-22-000----------------|
E|-------------------------------------------------------------------|
An empty chair at all the tables...

e|-------------------------------------------------------------------|
B|-------------------------------------------------------------------|
G|--77777777-99999999--4-4-4-4-2-2-2-2-------------------------------|
D|--77777777-99999999--4-4-4-4-2-2-2-2-------------------------------|
A|--55555555-77777777--2-2-2-2-0-0-0-0-------------------------------|
E|-------------------------------------------------------------------|
For now we'll say goodbye...

After Chorus thing
e|-------------------------------------------------------------------|
B|-------------------------------------------------------------------|
G|--6-6-6644-----Then-leads-right-into-the-Bridge--------------------|
D|--7-7-7777---------------------------------------------------------|
A|-------------------------------------------------------------------|
E|-------------------------------------------------------------------|

I saw that someone else already posted the solo so I didn't bother. This is a
GREAT song and deserved a better tab than what I had seen on the site. Anyway,
if you have any corrections don't worry about them because this tab works for me.
Comments