New Found Glory - Sonny Chords & Tabs

 

Sonny Chords & Tabs

New Found Glory Chords & Tabs

Version: 3 Type: Bass Tab 0 ratings
1 star 2 stars 3 stars 4 stars 5 stars
comments

Sonny Bass Tab

Intro: x2
G:--------------------------------------------------------------|
D:------7-9-9-7--------7-9-9-7---------2-4-4-2--------2-4-4-2---|
A:----7---------7----7---------7-----4---------4----4---------4-|
E:--55-----------55---------------22-------------22-------------|

Verse 1: x4
G:--------------------------------------------------------------|
D:------7-9-9-7--------7-9-9-7---------2-4-4-2--------2-4-4-2---|
A:----7---------7----7---------7-----4---------4----4---------4-|
E:--55-----------55---------------22-------------22-------------|

Chores 1: x1
G:------------------------------------------------|
D:------------------------------------------------|
A:--55-55-55-55-77-77-77-77-----------------------|
E:--------------------------22-2222-2222-22222222-|

G:------------------------------------------------|
D:------------------------------------------------|
A:--55-55-55-55-77-77-77-77-----------------------|
E:--------------------------22-2222-2222-22222222-|

G:--------------------------|
D:--------------------------|
A:--55-55-55-55-77-77-77-77-|
E:--------------------------|

Verse 2: x6
G:--------------------------------------------------------------|
D:------7-9-9-7--------7-9-9-7---------2-4-4-2--------2-4-4-2---|
A:----7---------7----7---------7-----4---------4----4---------4-|
E:--55-----------55---------------22-------------22-------------|

Chores 2: x1

G:------------------------------------------------|
D:------------------------------------------------|
A:--55-55-55-55-77-77-77-77-----------------------|
E:--------------------------22-2222-2222-22222222-|
[ Tab from: http://www.guitartabs.cc/tabs/n/new_found_glory/sonny_btab_ver_3.html ]
G:------------------------------------------------|
D:------------------------------------------------|
A:--55-55-55-55-77-77-77-77-----------------------|
E:--------------------------22-2222-2222-22222222-|

G:-------------------------------------------------------------------------|
D:-------------------------------------------------------------------------|
A:--55-55-55-55-77-77-77-77------------77-77-77-77-55-55-55-55-77-77-77-77-|
E:--------------------------22-22-22-22------------------------------------|

Verse 3: x2

G:--------------------------------------------------------------|
D:------7-9-9-7--------7-9-9-7---------2-4-4-2--------2-4-4-2---|
A:----7---------7----7---------7-----4---------4----4---------4-|
E:--55-----------55---------------22-------------22-------------|

Chores 3: x1
G:------------------------------------------------|
D:------------------------------------------------|
A:--55-55-55-55-77-77-77-77-----------------------|
E:--------------------------22-2222-2222-22222222-|

G:------------------------------------------------|
D:------------------------------------------------|
A:--55-55-55-55-77-77-77-77-----------------------|
E:--------------------------22-2222-2222-22222222-|

G:-------------------------------------------------------------------------|
D:-------------------------------------------------------------------------|
A:--55-55-55-55-77-77-77-77------------77-77-77-77-55-55-55-55-77-77-77-77-|
E:--------------------------22-22-22-22------------------------------------|

G:----------------------------------------------------------|
D:----------------------------------------------------------|
A:-----------------------55-55-55-55-77-77-77-77------------|
E:--22-2222-2222-2222222------------------------22-22-22-22-|

G:---------------------------------------------|
D:---------------------------------------------|         END
A:77-77-77-77-55-55-55-55-77-77-77-77----------|
E:---------------------------------------------|
Comments